The View - Dance Into The Night Chords & Tabs

 

Dance Into The Night Chords & Tabs

The View Chords & Tabs

Version: 1 Type: Bass Tab

Dance Into The Night Bass Tab

G|------------------------------------|
D|---2-5-2---------3-7-3-5-5-3-2-0----|
A|-3-------0-0-0h5--------------------|
E|------------------------------------|  X4

G|------------------------------------|
D|------------------------------------|
A|-4457-7-9999-1112-99---------------|
E|------------------------------------|  X2

G|------------------------------------|
D|---2-5-2---------3-7-3-5-5-3-2-0----|
A|-3-------0-0-0h5--------------------|
E|------------------------------------|  X5
[ Tab from: https://www.guitartabs.cc/tabs/t/the_view/dance_into_the_night_btab.html ]
G|------------------------------------|
D|------------------------------------|
A|-4457-7-9999-1112-99---------------|
E|------------------------------------|  X2

G|------------------------------------|
D|---2-5-2---------3-7-3-5-5-3-2-0----|
A|-3-------0-0-0h5--------------------|
E|------------------------------------|  X11

G|------------------------------------|
D|------------------------------------|
A|-4457-7-9999-1112-99---------------|
E|------------------------------------|  X2

G|------------------------------------|
D|---2-5-2---------3-7-3-5-5-3-2-0----|
A|-3-------0-0-0h5--------------------|
E|------------------------------------|  X5

End
G|-------------------|
D|---2-5-2-----------|
A|-3-------0-0-------|
E|-------------------|