Sugar Ray - Answer The Phone Chords & Tabs

 

Answer The Phone Chords & Tabs

Sugar Ray Chords & Tabs

Version: 3 Type: Bass Tab

Answer The Phone Bass Tab

ARTIST: Sugar Ray
SONG: ANSWER THE PHONE
Album: Sugar Ray S.E

INTRO:
G|---------------------------------------------------------|I
D|---------------------------------------------------------|I
A|---------------66666666666666-88888888888888-98--98--98--|I
E|-44444444444444--------------------------------88--88--8-|I

VERSION 1
G|---------------------------------------------------------|I
D|---------------------------------------------------------|I
A|---------------66666666666666-88888888888888-98--98-98--|I
E|-44444444444444--------------------------------88--88--8-|I

G|-------------------------------------------------------------|I
D|-------------------------------------------------------------|I
A|---------------66666666666666-88888888888888-666666666666664-|I
E|-44444444444444----------------------------------------------|I

Chorus:
G|---------------------------------------------------------|I
D|---------------------------------------------------------|I
A|---------------66666666666666-88888888888888-98--98-98--|I 2x
E|-44444444444444--------------------------------88--88--8-|I

VERSION 2
G|---------------------------------------------------------|I
D|---------------------------------------------------------|I
A|---------------66666666666666-88888888888888-98--98-98--|I
E|-44444444444444--------------------------------88--88--8-|I

G|--------------------------------------------------------------|I
D|--------------------------------------------------------------|I
A|---------------66666666666666-88888888888888-66666666666666/0-|I
E|-44444444444444-----------------------------------------------|I
[ Tab from: https://www.guitartabs.cc/tabs/s/sugar_ray/answer_the_phone_btab_ver_3.html ]
Chorus:
G|---------------------------------------------------------|I
D|---------------------------------------------------------|I
A|---------------66666666666666-88888888888888-98--98-98--|I
E|-44444444444444--------------------------------88--88--8-|I

G|------------------------------------------------------------|I
D|------------------------------------------------------------|I
A|---------------66666666666666-88888888888888-66666666666666-|I
E|-44444444444444---------------------------------------------|I

Brige
G|------------------------------------------------------------|I
D|------------------------------------------------------------|I
A|---------------6>--------------8>--------------4>-----------|I
E|-4>---------------------------------------------------------|I



Brige Part 2
G|----------------------------------------------------------------|I
D|----------------------------------------------------------------|I
A|---------------6>-------6>-------8>-------8>-------4>-----------|I
E|-4>------4>-----------------------------------------------------|I

G|------------------------------------------------------------|I
D|------------------------------------------------------------|I
A|---------------66666666666666-88888888888888-99999999999999-|I
E|-44444444444444---------------------------------------------|I

Chorus:
G|----------------------------------------------------------------|I
D|----------------------------------------------------------------|I
A|---------------66666666666666-88888888888888-98--98-98---------|I 
E|-44444444444444--------------------------------88--88--8/4hold--|I

(continue over and over when he keeps singing,do it again do it again till fade out.)