Samiam - Come Home Chords & Tabs

 

Come Home Chords & Tabs

Samiam Chords & Tabs

Version: 1 Type: Bass Tab

Come Home Bass Tab

   
Band: Samiam
Album: Whatever's Got You Down (iTunes Version)
Song: Come Home

Please Rate!

Note: 11 and 12 are eleven and twelve not 1ís and 2ís throughout

> = play 4 times
\ = slide down
/ = slide up
~ = let ring

Bridge:

G|--------------------------------------|
D|-11>>---------------------------------| 
A|------9>>-7>>-9>-7>-9>>-0>>-7>>-5>-7>-|   
E|--------------------------------------|

Verse 1 (0:11)

G|----------|
D|----------| 
A|-00-00-7\-|   x4
E|----------|

Then:

Bridge (0:17)
Verse 1 (0:29)

Verse 2 (0:35)

G|----------|
D|----------| 
A|-55-55-7\-| 
E|----------|

G|----------|
D|----------| 
A|-55-55-2/-|  
E|----------|

G|----------|
D|----------| 
A|-55-55-7\-| x2
E|----------|

Then:

Verse 1 (0:41)
Verse 2 (0:47)
Verse 1 (0:53)
Bridge (0:59)

Chorus: (1:11)
[ Tab from: https://www.guitartabs.cc/tabs/s/samiam/come_home_btab.html ]
G|-----------------------------------------------------------------|
D|-----------------------------------------------------------------| 
A|-000-7\-000-7\-000-7\--------------------99-77-5555555555555-777-|   
E|----------------------55-44-222222222222-------------------------|

G|----------------------------------------------------------------|
D|----------------------------------------------------------------| 
A|-00000000000-7/1212-1111-999999999999-1212-77-5555555555555-777-|   
E|----------------------------------------------------------------|

Post Chorus: (1:47)

G|-------|
D|-------| 
A|-00-00-|   x7
E|-------|

Then:

Verse 1 (1:57)
Verse 2 (2:05)
Verse 1 (2:11)
Verse 2 (2:17)
Chorus (2:22)

End: (2:58) 

G|-------------------------------------------------------------------|
D|-------------------------------------------------------------------| 
A|-000-7\-000-7\-000-7\--------------------99-77-5555555555555-777-0~|   
E|----------------------55-44-222222222222---------------------------|