Pennywise - Broken Chords & Tabs

 

Broken Chords & Tabs

Pennywise Chords & Tabs

Version: 1 Type: Tab

Broken Tab

Intro:
e|-----------------------------------------------------------|
B|-----------------------------------------------------------|
G|---------------------------9-8-9--4--4-4--8-9--6--6-6--8-9-|
D|-6--6-6-6-6-6-6-6-6-6-6-6--9-8-9--4--4-4--8-9--6--6-6--8-9-|
A|-6--6-6-6-6-6-6-6-6-6-6-6--7-6-7--2--2-2--6-7--4--4-4--6-7-|
E|-4--4-4-4-4-4-4-4-4-4-4-4----------------------------------|

e|-----------------------------------------------------------|
B|-----------------------------------------------------------|
G|---------------------------9-8-9--4--4-4--8-9--6--6-6--8-9-|
D|-6--6-6-6-6-6-6-6-6-6-6-6--9-8-9--4--4-4--8-9--6--6-6--8-9-|
A|-6--6-6-6-6-6-6-6-6-6-6-6--7-6-7--2--2-2--6-7--4--4-4--6-7-|
E|-4--4-4-4-4-4-4-4-4-4-4-4----------------------------------|

(Drums start)

e|-----------------------------------------------------------|
B|-----------------------------------------------------------|
G|---------------------------9-8-9--4--4-4--8-9--6--6-6--8-9-|
D|-6--6-6-6-6-6-6-6-6-6-6-6--9-8-9--4--4-4--8-9--6--6-6--8-9-|
A|-6--6-6-6-6-6-6-6-6-6-6-6--7-6-7--2--2-2--6-7--4--4-4--6-7-|
E|-4--4-4-4-4-4-4-4-4-4-4-4----------------------------------|
[ Tab from: https://www.guitartabs.cc/tabs/p/pennywise/broken_tab.html ]
e|-----------------------------------------------------------|
B|-----------------------------------------------------------|
G|---------------------------9-8-9--4--4-4--8-9--------------|
D|-6--6-6-6-6-6-6-6-6-6-6-6--9-8-9--4--4-4--8-9--6--8--9-9-9-|
A|-6--6-6-6-6-6-6-6-6-6-6-6--7-6-7--2--2-2--6-7--6--8--9-9-9-|
E|-4--4-4-4-4-4-4-4-4-4-4-4----------------------4--6--7-7-7-|

e|----------------------------------------------|
B|----------------------------------------------|
G|--------------------------------9-9-9---------|
D|-666-xxx-666-xxx-666-xxx--6-6-6-9-9-9---------|
A|-666-xxx-666-xxx-666-xxx--6-6-6-7-7-7---------|
E|-444-xxx-444-xxx-444-xxx--4-4-4---------------|

e|---------------------------------------------|
B|---------------------------------------------|
G|-------------------------------9-9-9---------|
D|-666-xxx-666-xxx-666-xxx--6-8--9-9-9---------|
A|-666-xxx-666-xxx-666-xxx--6-8--7-7-7---------|
E|-444-xxx-444-xxx-444-xxx--4-6----------------|        

Singing starts, back to beginning, the solo is hard, so work on that if you will, this is 
my first tab, so it isnít the best.  Work with it, and you can figure the order out and 
stuff.  See ya later!