My Chemical Romance - Thank You For The Venom Chords & Tabs

 

Thank You For The Venom Chords & Tabs

My Chemical Romance Chords & Tabs

Version: 10 Type: Tab

Thank You For The Venom Tab

   
----------------------------------------------------------------------|         Thank
for the venom  My Chemical Romance
----------------------------------------------------------------------|
Tabbed by:Panda-Spirit
Email:

Tuning: (E-A-D-G-B-e)


Intro:

Guitar 1
e|--------------------------------------------------------------------|
B|--------------------------------------------------------------------|
G|--------------------------------------------------------------------|
D|---4----------------0h2------------------2---4---5-----2-----4------|
A|---2--2-4-5-2-4---------4-5-4-2-------------------------------------|
E|----------------2-3-------------3-2--0-0---0---0---0-0---0-0--------|
PM      . . . . . . .     . . . . . .  . .   .   .   . .   . .
e|--------------------------------------------------------------------|
B|--------------------------------------------------------------------|
G|--------------------0h2---------------------------------------------|
D|---4----------------------5---4---2-----2---4---5-----2----4--------|
A|---2--2-4-5-2-4-----------------------------------------------------|
E|----------------2-3-----0---0---0---0-0---0---0---0-0---0-0---------|
PM      . . . . . . .     .   .   .   . .   .   .   . .   . .

Gtr 2 Frank

E||--------------------------------------|
B||--------------------------------------|
G||-77777777-6666-77777777-9999-11111111-|
D||-99999999-9999-99999999-9999-9-9-9-9--|
A||--------------------------------------|
E||--------------------------------------|

E||-------------------------------------------|
B||-------------------------------------------|
G||-77777777-6666-12121212-11111111-7777-6666-|
D||-99999999-9999-9-9-9-9--9-9-9-9--9999-9999-|
A||-------------------------------------------|
E||-------------------------------------------|

Pre-Verse

Gtr 2

E||------------------|
B||------------------|
G||-7777777777777777-|
D||-9999999999999999-|
A||------------------|
E||------------------|
PM: ................

Verse 1

Gtr's 1 & 2

E||------------------------------------------|
B||------------------------------------------|
G||-----------------------7777777/9\66666666-|
D||-44444444-5-44444444-5-xxxxxxx-x-xxxxxxxx-|
A||-44444444-5-44444444-5-5555555/7\44444444-|
E||-22222222-3-22222222-3--------------------|

Gtr 2

E||--------------------------------|
B||--------------------------------|
G||--------------------------------|
D||-99-999-999-999-999-999-999-999-|
A||-99-999-999-999-999-999-999-999-|
E||-77-777-777-777-777-777-777-777-|

Gtr 1

E||------------------------------------------|
B||------------------------------------------|
G||----------99-9/1111----------1414-14/1111-|
D||-99-999-9-xx-x-x-x--99-999-9-x-x--x--x-x--|
A||-99-999-9-77-7/9-9--99-999-9-1212-12/9-9--|
E||-77-777-7-----------77-777-7--------------|


E||------------------------------------------|
B||------------------------------------------|
G||-----------------------7777777/9\66666666-|
D||-44444444-5-44444444-5-xxxxxxx-x-xxxxxxxx-|
A||-44444444-5-44444444-5-5555555/7\44444444-|
E||-22222222-3-22222222-3--------------------|

                (x2)
E||----------------|
B||----------------|
G||----------------|
D||-4444444444-7-9-|
A||-2222222222-5-7-|
E||----------------|

E||------------------------------------------|
B||------------------------------------------|
G||-----------------------7777777/9\66666666-|
D||-44444444-5-44444444-5-xxxxxxx-x-xxxxxxxx-|
A||-44444444-5-44444444-5-5555555/7\44444444-|
E||-22222222-3-22222222-3--------------------|

Gtr 2

E||--------------------------------|
B||--------------------------------|
G||--------------------------------|
D||-99-999-999-999-999-999-999-999-|
A||-99-999-999-999-999-999-999-999-|
E||-77-777-777-777-777-777-777-777-|

Gtr 1

E||------------------------------------------|
B||------------------------------------------|
G||----------99-9/1111----------1414-14/1111-|
D||-99-999-9-xx-x-x-x--99-999-9-x-x--x--x-x--|
A||-99-999-9-77-7/9-9--99-999-9-1212-12/9-9--|
E||-77-777-7-----------77-777-7--------------|

Pre-Chorus

Gtr's 1 & 2

E||-----------------------------------------------|
B||-----------------------------------------------|
G||-----------------------------------------------|
D||-55555555-7777-9999----------11111111-12121212-|
A||-55555555-7777-9999-99999999-11111111-12121212-|
E||-33333333-5555-7777-66666666-9-9-9-9--10101010-|

E||-------------------------------------------|
B||-------------------------------------------|
G||-------------------------------------------|
D||-5555555555555555-7777777777777777-88-1010-|
A||-5555555555555555-7777777777777777-88-1010-|
E||-3333333333333333-5555555555555555-66--8-8-|


Chorus

Gtr 2 Frank
                                                                     (x2)
E||---------------------------------------------------------------------|
B||---------------------------------------------------------------------|
G||-7777777777777777-6666666666666666-4444444444444444------------------|
D||-7777777777777777-7777777777777777-4444444444444444-5555555555555555-|
A||-5555555555555555-5555555555555555-2222222222222222-5555555555555555-|
E||----------------------------------------------------3333333333333333-|

Gtr 1 Ray

E||-------------------------------------------------------------------|
B||-------------------------------------------------------------------|
G||-------------------------------------------------------------------|
D||-12121212121212121212121212121212-11111111111111111111111111111111-|
A||-12121212121212121212121212121212-12121212121212121212121212121212-|
E||-10101010101010101010101010101010-10101010101010101010101010101010-|

E||-----------------------------------|
B||-----------------------------------|
G||-----------------------------------|
D||-9999999999999999-5555555555555555-|
A||-9999999999999999-5555555555555555-|
E||-7777777777777777-3333333333333333-|

E||----------------------------------|
B||----------------------------------|
G||----------------------------------|
D||-1212121212121212/14141414/161616-|
A||--x-x-x-x-x-x-x-x--x-x-x-x--x-x-x-|
E||-1010101010101010/12121212/141414-|

E||----------------------------------|
B||----------------------------------|
G||----------------------------------|
D||-1111111111111111/12121212/141414-|
A||--x-x-x-x-x-x-x-x--x-x-x-x--x-x-x-|
E||--9-9-9-9-9-9-9-9/10101010/121212-|

E||-----------------------------------|
B||-----------------------------------|
G||-----------------------------------|
D||-9999999999999999-5555555555555555-|
A||-xxxxxxxxxxxxxxxx-xxxxxxxxxxxxxxxx-|
E||-7777777777777777-3333333333333333-|


verse 2
[ Tab from: https://www.guitartabs.cc/tabs/m/my_chemical_romance/thank_you_for_the_venom_tab_ver_10.html ]
Gtr's 1 & 2
                  (x2)
E||------------------|
B||------------------|
G||------------------|
D||-4-4444444444-7-9-|
A||-2-2222222222-5-7-|
E||------------------|
PM.   ..........

e||------------------------------------------|
B||------------------------------------------|
G||-----------------------7777777/9\66666666-|
D||-44444444-5-44444444-5-xxxxxxx-x-xxxxxxxx-|
A||-44444444-5-44444444-5-5555555/7\44444444-|
E||-22222222-3-22222222-3--------------------|

Gtr 2

E||--------------------------------|
B||--------------------------------|
G||--------------------------------|
D||-99-999-999-999-999-999-999-999-|
A||-99-999-999-999-999-999-999-999-|
E||-77-777-777-777-777-777-777-777-|

Gtr 1

E||------------------------------------------|
B||------------------------------------------|
G||----------99-9/1111----------1414-14/1111-|
D||-99-999-9-xx-x-x-x--99-999-9-x-x--x--x-x--|
A||-99-999-9-77-7/9-9--99-999-9-1212-12/9-9--|
E||-77-777-7-----------77-777-7--------------|


E||------------------------------------------|
B||------------------------------------------|
G||-----------------------7777777/9\66666666-|
D||-44444444-5-44444444-5-xxxxxxx-x-xxxxxxxx-|
A||-44444444-5-44444444-5-5555555/7\44444444-|
E||-22222222-3-22222222-3--------------------|


Repeat Pre-Chorus

Repeat Chorus

Pre-Solo

Gtr 1 Ray

E||--------------------------------|
B||--------------------------------|
G||--------------------------------|
D||---4--x--4p0-4p0-4p0-4p0-4p0----|
A||---2--x-------------------------|
E||--------------------------------|

Gtr 2 Frank

E||-------|
B||-------|
G||-4-(S)-|
D||-4-(T)-|
A||-2-(O)-|
E||---(P)-|

**Solo**


Gtr 2 Frank
                                                                      (x2)
E||----------------------------------------------------------------------|
B||----------------------------------------------------------------------|
G||-4444444444444444-----------------------------------------------------|
D||-4444444444444444-5555555555555555------------------44444444-88888888-|
A||-2222222222222222-5555555555555555-4444444444444444-44444444-88888888-|
E||------------------3333333333333333-1111111111111111-22222222-66666666-|


Gtr 1 Ray

e||----------------------------------------------------------------------|
B||------------------------------------------------- --------------------|
G||4---7---7---6---7-6---4/6---7---9---9---7--6---11---7--4---11--------|
D||----------------------------------------------------------------------|
A||----------------------------------------------------------------------|
E||----------------------------------------------------------------------|

e||---------------------------------|
B||---------------------------------|
G||-11---12---9--6/96/9--11--12---|
D||---------------------------------|
A||---------------------------------|
E||---------------------------------|


E||---------------------------------------12-14-12-14--17-19-17---|
B||---------------------12-14-15-14-15-14-------------------------|
G||---11-12-14-11-12-14-------------------------------------------|
D||---------------------------------------------------------------|
A||---------------------------------------------------------------|
E||---------------------------------------------------------------|

e||-14-15-14----14----14---14-15-14----14----------19-15-14----14-----------|
B||----------17----17---------------17----17-15-14----------17----17-15-14--|
G||-------------------------------------------------------------------------|
D||-------------------------------------------------------------------------|
A||-------------------------------------------------------------------------|
E||-------------------------------------------------------------------------|

e||-------------------------------------------------------------------------|
B||--15p14p12-14p12----12---------------------------------------------------|
G||-----------------14----14-12--14p12p11-12p11----11-----------------------|
D||---------------------------------------------14----14-12--14p12p11-12p11-|
A||-------------------------------------------------------------------------|
E||-------------------------------------------------------------------------|

e||----------------------------------------------------|
B||----------------------------------------------------|
G||----------------------------------------------------|
D||----11----------------------------------------------|
A||-14----14-12--14p12p10-12p10----10------------------|
E||-----------------------------14----14-14p12p10-0~---|

Gtr 2

E||--------------------------------------------------------------|
B||--------------------------------------------------------------|
G||-----------------------------------------------------22222222-|
D||-5555555555555555-2222222222222222-33333333-44444444-22222222-|
A||-5555555555555555-2222222222222222-33333333-44444444-00000000-|
E||-3333333333333333-0000000000000000-11111111-22222222----------|
PM:                                   ........ ........ ........


Gtr 1 (Clean)


E||-----------------------------------------------|
B||-----------------------------------------------|
G||-----------------------------------------------|
D||-----------------------------------------------|
A||-----------------------------------------------|
E||-33333333-5555-7777-66666666-9-9-9-9--10101010-|

E||---------------------|
B||---------------------|
G||---------------------|
D||---------------------|
A||---------------------|
E||-33333333-5555-7777--|


Both Gtr's

E||--------------|
B||--------------|
G||--------------|
D||----------7-7-|
A||-77777777-7-7-|
E||-55555555-5-5-|
PM: ........

Repeat Pre Chorus

Repeat Chorus (Gtr II Changes slightly at the end to this)

Gtr 1

E||-----------------------------------------|
B||-----------------------------------------|
G||-----------------------------------------|
D||-12-121212-1414-1616-11-111111-1212-1414-|
A||--x--x-x-x--x-x--x-x--x--x-x-x--x-x--x-x-|
E||-10-101010-1212-1414--9--9-9-9-1010-1212-|

E||----------------------------------------|
B||----------------------------------------|
G||----------------------------------------|
D||-16/14-12/14-121212--16/14-12/14-121212-|
A||--x--x--x--x--x-x-x---x--x--x--x--x-x-x-|
E||-14/12-10/12-101010--14/12-10/12-101010-|

E||--------------------------------------|
B||--------------------------------------|
G||-14/16-14-12/14-141414-14/16-14-12-11-|
D||--x--x--x--x--x--x-x-x--x--x--x--x--x-|
E||-12/14-12-10/12-121212-12/14-12-10--9-|

E||------------------------------|
B||------------------------------|
G||------------------------------|
D||-14/16-14-12--14/16-14-12-11~-|
A||--x--x--x--x---x--x--x--x--x--|
E||-12/14-12-10--12/14-12-10--9~-|

Repeat Intro

Both Gtrs end on

E||----|
B||----|
G||-4~-|
D||-4~-|
A||-2~-|
E||----|


| /  slide up
| \  slide down
| h  hammer-on
| p  pull-off
| ~  vibrato
| +  harmonic
| x  Mute note
==============================================================