My Chemical Romance - Teenagers Chords & Tabs

 

Teenagers Chords & Tabs

My Chemical Romance Chords & Tabs

Version: 5 Type: Tab

Teenagers Tab

   
----------------------------------------------------------------------
			    Teenagers  My Chemical Romance
----------------------------------------------------------------------
Tabbed by:Panda-Spirit
Email:

Tuning: E-A-D-G-B-E



Gtr 1
e|-----------------------------------|-----------------------------------|
B|-----------------------------------|-----------------------------------|
G|-----------------------------------|-----------------------------------|
D|--7-7-7-7-7-7-7-7-7-7-7-7-7-7-7-7--|--2-2-2-2-2-2-2-2-2-2-2-2-2-2-2-2--|
A|--7-7-7-7-7-7-7-7-7-7-7-7-7-7-7-7--|--2-2-2-2-2-2-2-2-2-2-2-2-2-2-2-2--|
E|--5-5-5-5-5-5-5-5-5-5-5-5-5-5-5-5--|--0-0-0-0-0-0-0-0-0-0-0-0-0-0-0-0--|



e|-----------------------------------|-----------------------------------|
B|-----------------------------------|-----------------------------------|
G|-----------------------------------|-----------------------------------|
D|--7-7-7-7-7-7-7-7-7-7-7-7-7-7-7-7--|--9-9-9-9-9-9-9-9-9-9-9-9-9-9-9-9--|
A|--7-7-7-7-7-7-7-7-7-7-7-7-7-7-7-7--|--9-9-9-9-9-9-9-9-9-9-9-9-9-9-9-9--|
E|--5-5-5-5-5-5-5-5-5-5-5-5-5-5-5-5--|--7-7-7-7-7-7-7-7-7-7-7-7-7-7-7-7--|


[ Tab from: https://www.guitartabs.cc/tabs/m/my_chemical_romance/teenagers_tab_ver_5.html ]
Gtr 2
e|-----------------------------------12--|-----------12--|                 
B|------------------------7-7h9-7h9--12--|-----------12--|
G|--9p7h9p7-9--7--5h6--9--7-7h9-7h9------|--14p12-13-----|
D|----------9--7--7----9-----------------|---------------|
A|---------------------------------------|---------------|
E|---------------------------------------|---------------|



e|--------------------------------------------------|
B|--15^r^r-15-12h15p12-10h12p10-8--10^(12)rp8-10p8--|
G|--------------------------------------------------|
D|--------------------------------------------------|
A|--------------------------------------------------|
E|--------------------------------------------------|



e|---------------------------------|
B|---------------------------------|
G|--9--7p5-6--9---9-9-9-7p5-6--9---|
D|--9---------9---9-9-9--------9---|
A|---------------------------------|
E|---------------------------------|



e|-----------------------------------------------------|
B|-----------------------------------------------------|
G|--9^(11)~-9^-9^-9^-9^-9^-9^-9^-9^-9^-9^-9^-9^-9~~~---|
D|-----------------------------------------------------|
A|-----------------------------------------------------|
E|-----------------------------------------------------|


| /  slide up
| \  slide down
| h  hammer-on
| p  pull-off
| ~  vibrato
| +  harmonic
| x  Mute note
==============================================================