My Chemical Romance - Heaven Help Us Chords & Tabs

 

Heaven Help Us Chords & Tabs

My Chemical Romance Chords & Tabs

Version: 3 Type: Tab

Heaven Help Us Tab

   
Song: Heaven Help Us
Artist: My Chemical Romance
Album: "Welcome To The Black Parade" single
Release Date: October 2006
Tabbed By: the mcr freak
Tuning: Standard (Low to high EADGBe)
=============================================
I don't know if this tab is perfectly accurate... but I am lazy and can't be bothered
You'll get the general idea though and what ever stuff-ups there are you can correct
easily if you listen to the song.
Please rate!
xCheers.
=============================================
Guitar I -  Ray Toro - Lead
Guitar II - Frank Iero - Rhythm

KEY: * plam Mute
     b bend
     v pinch harmonic
     ~ let ring
     + harmonic [12 frets above]

Intro - Guitar I (clean part)
(There are other ways to play this part that are probably easier but I can't be bothered
it out that way because I already started typing it this way).

e--------------------------------|----------------------------|------------------------|-------------------------|
B----1-------1-------1-------1---|----0------0------0------0--|---3-----3-----3-----3--|----1-----1-----1-----1--|
G---2-2-----2-2-----2-2-----2-2--|---1-1----1-1----1-1----1-1-|--2-2---2-2---------------------------------------|
(palm mute every note but the ones

 played on the B string)
A-0-------0-------0--------0-----|----------------------------|------------------------|--3-----3----2------2----|
E--------------------------------|-0------0------0------0-----|------------------------|-------------------------|
  * * *  *  * *   * * *    ** *    * *  * * *  * * * *  * * *   ** *  ** *  ** *  ** *
** *  ** * * * *  **  *

Verse Guitar I (dirty)
e--------------------------------|------------------------------|-------------------------|---------------------------|
B----1-------1-------1-------1---|----0------0-------0-------0--|----3------3-----3----3--|----1-----1-----1-----1----|
G--------------------------------|------------------------------|-------------------------|---------------------------|
D--------------------------------|------------------------------|-00----00----00----00----|---------------------------|x2
A-00-----00-----00------00-------|------------------------------|-------------------------|--33-----33----22------22--|
E--------------------------------|-00------00------00------00---|-------------------------|---------------------------|
  **     **     **      **         **      **      **      **     **    **    **    **
   **     **    **      **

Verse Guitar II (dirty)
e-----|---------------------|------------------------|------------------------|---------------------|
B-----|---------------------|------------------------|------------------------|---------------------|
G-----|---------------------|------------------------|------------------------|---------------------|
D-----|----7----7----7----7-|----2-----2-----2-----2-|----7-----7-----7-----7-|----5----5----5----5-|x2
A-----|-77-7-77-7-77-7-77-7-|-22-2--22-2--22-2--22-2-|-55-5--55-5--55-5--55-5-|-33-3-33-3-22-2-22-2-|
E--5b-|-55-5-55-5-55-5-55-5-|-00-0--00-0--00-0--00-0-|-55-5--55-5--55-5--55-5-|-33-3-33-3-22-2-22-2-|
        **   **   **   **     **    **    **    **     **    **    **    **     **   **
**   **

Pre-chorus Both Guitars ("Someone save us")
e----------|
B----------|
G----------|
D--77-77-7-|
A--77-77-7-|
E--55-55-5-|
[ Tab from: https://www.guitartabs.cc/tabs/m/my_chemical_romance/heaven_help_us_tab_ver_3.html ]
Chorus - Guitar II
e----------------------------------------------|
B----------------------------------------------|
G----------------------------------------------|
D-55555555-44444444-44444444-------------------|x2
A-33333333-22222222-33333333-77777777-33333333-|
E----------------------------55555555-11111111-|

Second time through guitar I plays something like THIS
e----15--13---12--------------|----15--13---12-------------------|-----------12-13-15-|
B-13---13---13---13-15--13-15-|13---13---13---13-15--13-15-------|---13--15-----------|
G-----------------------------|----------------------------12h14-|-12--12--12---------|
D-----------------------------|----------------------------------|--------------------|
A-----------------------------|----------------------------------|--------------------|
E-----------------------------|----------------------------------|--------------------|
I doubt it's right but it's something along those lines.
It's based around A G chord if that helps (Notes in G scale: G A b C D E F# G)

Repeat Verse
SECOND time through verse 2, guitar I plays
e------------------------|------------------------------|-------------------------|---------------------------|
B------------------------|----0------0-------0-------0--|----3------3-----3----3--|----1-----1-----1-----1----|
G------------------------|------------------------------|-------------------------|---------------------------|
D----5-----5-----5-----5-|------------------------------|-00----00----00----00----|---------------------------|
A-00----00----00----00---|------------------------------|-------------------------|--33-----33----22------22--|
E------------------------|-00------00------00------00---|-------------------------|---------------------------|
  ** v  ** v  ** v  ** v   **      **      **      **     **    **    **    **       **
  **    **      **

Repeat Chorus

Bridge:
Guitar I (clean)
e------------|------------|---------8--|------------|---------8--|
B-8888-66-55-|-8888-66-55-|-8888-88--5-|-8888-66-55-|-8888-88--5-|
G-5555-55-55-|-5555-55-55-|-5555-55----|-5555-55-55-|-5555-55----|
D------------|------------|------------|------------|------------|
A------------|------------|------------|------------|------------|
E------------|------------|------------|------------|------------|

Guitar II (dirty)
e------------------------------------|
B------------------------------------|
G------------------------------------|
D------------------------------------|
A------------------------------------|
E-1~--3~--4~--0-4-5~-3~-1~-1-1/3~-3+-|
The harmonic is played when you let the note ring and rest your finger over the fret
12 frets up (15th fret). If that makes sense.

Repeat chorus x1 then
Guitar II continues playing chorus chords, guitar I play what guitar II did during the bridge.
Then guitar II
e------------|
B------------|
G------------|
D------------|
A------------|
E-5~-7-8-5~--|

Guitar I (clean)
e--------------------------------|
B----1-------1-------1-------1---|
G---2-2-----2-2-----2-2-----2-2--|
D--------------------------------|
A-0-------0-------0--------0-----|
E--------------------------------|
  * * *  *  * *   * * *    ** *

Ending on
e---|
B---|
G---|
D-7-|
A-7-|
E-5-|

Again I doubt it is exact but itís near enough.
=============================================