My Chemical Romance - All I Want For Christmas Chords & Tabs

 

All I Want For Christmas Chords & Tabs

My Chemical Romance Chords & Tabs

Version: 1 Type: Bass Tab

All I Want For Christmas Bass Tab

My Chemical Romance
All I Want For Christmas
Stufin135(Hellbassist1)


Verse 1
G|-------------------------------------|----------------------------------------||
D|-------------------------------------|----------------------------------------||
A|-------------------33333333-66666666-|-------------------33333333-6~6~6~66666-||
E|--3333333333333333-------------------|--3333333333333333----------------------||

Chorus
G|-----------------------------------------------------------------------------------------------||
D|-----------------------------------------------------------------------------------------------||
A|------------------------------6-6-5-5-5-5-7-7-7-7--------5-5-5-5-------------------------5555-||
E|--3-3-3-3-3-3-2-2-0-0-0-0-0-0---------------------5-5-5-5---------3-3-3-3-0-0-0-0-5-5-5-5------||
 
Verse 2 
G|------------------------------------------------------------------||
D|------------------------------------------------------------------||
A|----------------------------------3-3-3-3-3-3-3-3-6-6-6-6-6-6-6-6-||
E|--3-3-3-3-3-3-3-3-3-3-3-3-3-3-3-3---------------------------------||

G|------------------------------------------------------------||
D|------------------------------------------------------------||
A|--------------------------------3-3-3-3-3-3-3-3-6~6~6~66666-||
E|3-3-3-3-3-3-3-3-3-3-3-3-3-3-3-3-----------------------------||

Chorus
G|-----------------------------------------------------------------------------------------------||
D|-----------------------------------------------------------------------------------------------||
A|------------------------------6-6-5-5-5-5-7-7-7-7--------5-5-5-5-------------------------5555-||
E|--3-3-3-3-3-3-2-2-0-0-0-0-0-0---------------------5-5-5-5---------3-3-3-3-0-0-0-0-5-5-5-5------||
[ Tab from: https://www.guitartabs.cc/tabs/m/my_chemical_romance/all_i_want_for_christmas_btab.html ]
Bridge
G|---------------------------------|--------------------------------||
D|----------7----------------------|---------7----------------------||
A|----6-7-9---10-9-10--------------|----6-7-9---10-9-10-------------||
E|--7-----------------0/12~--0/12~-|--7-----------------0/12~--0~~~-||

G|-----------------------------------------------------------||
D|-----------------------------------------------------------||
A|--6-6-6-6-6-6-6-6-5-5-5-5-7-7-7-7-----------------55555556-||
E|----------------------------------5-5-5-5-5-5-5-5----------||

\/ Play softly (Palm Muste if using a pick)
G|-------------------------------------||
D|-------------------------------------||
A|-------------------33333333-666666---||
E|--3333333333333333-------------------||

G|-------------------------------------------------------------||
D|-------------------------------------------------------------||
A|--------------2-------------6-5-5-5-5-7-7-7-7--------5~-5-5-||
E|--3-3-3-3-3-3---0-0-0-0-0-0-------------------5-5-5-5--------||

Outro
G|----------------------------------||
D|----------------------------------||
A|--------------------------5-5-5-5-||
E|--3-3-3-3-0-0-0-0-5-5-5-5---------||

G|----------------------------------||
D|----------------------------------||
A|--------------------------5-5-5-5-||
E|--3-3-3-3-0-0-0-0-5-5-5-5---------||

G|----------------------------------||
D|----------------------------------||
A|--------------------------5-5-5-5-||
E|--3-3-3-3-0-0-0-0-5-5-5-5---------||

G|----------------------------------||
D|----------------------------------||
A|--------------------------5-5-5-5-||
E|--3-3-3-3-0-0-0-0-5-5-5-5---------||

G|----------------------------------||
D|----------------------------------||
A|--------------------------5-5-5-5-||
E|--3-3-3-3-0-0-0-0-5-5-5-5---------||

G|----------------------------------||
D|----------------------------------||
A|--------------------------5-5-5-5-||
E|--3-3-3-3-0-0-0-0-5-5-5-5---------||

G|----------------------------------||
D|----------------------------------||
A|--------------------------5-5-5-5-||
E|--3-3-3-3-0-0-0-0-5-5-5-5---------||

G|----------------------------------||
D|----------------------------------||
A|--------------------------5-5-5-5-||
E|--3-3-3-3-0-0-0-0-5-5-5-5---------||