Hawk Nelson - Bring Em Out Chords & Tabs

 

Bring Em Out Chords & Tabs

Hawk Nelson Chords & Tabs

Version: 4 Type: Tab

Bring Em Out Tab

   
All the girls and the boys and people making noise just let me hear ya
shout bring em out bring em out

intro: guitar 1
e-------------------------------------------------------------------------->
B-------------------------------------------------------------------------->
G-------------------------------------------------------------------------->
D-4~-----------------------------------------------4~---------------------->
A-2~-----------------------------------------------2~---------------------->
D-------------------------------------------------------------------------->
pump up your fists if you twist like this till the lights go out bring em
out bring em out

intro: guitar 1
e------------------------------------------------------>
B------------------------------------------------------>
G--4-44---4-444---4-44-------4-44---4-444---4-44------->
D--4-442-24-4445-54-442-24---4-442-24-4445-54-442-24--->
A--2-222-22-2225-52-222-24---2-222-22-2225-52-222-24--->
D------2-2-----5-5----2-24-------2-2-----5-5----2-24--->
All the girls and the boys and people making noise just let me hear ya
shout bring em out bring em out pump up your fists if you twist like this
till the lights go out bring em out bring em out

verse 1: guitar 1
e-------------------------------------------------------------------------->
B-------------------------------------------------------------------------->
G---4~-----4--------4~-----4-----6-6-6---4++4++4++44---------4++4++4++44--->
D-2-4~-----4-2-4--2-4~-----4-2-44-4-4-42-4++4++4++44224444-224++4++4++4424->
A-2-2~-----2-2-4--2-2~-----2-2-4-------2-2++2++2++22224444-222++2++2++2224->
D-2----------2-4--2----------2-4-------2------------224444-22-----------24->
Katie, I donít know why I even try Cause lately youíre always out with
other guys pretty baby donít you know Iíll treat you right? Iíll go crazy
if you pass me up tonight

pre-chorus: guitar 1
e----------------------->
B---------------5++----->
G-4++4++4++--4++4++4++-->
D-4++4++4++--4++2++4++-->
A-2++2++2++--2++---2++-->
D----------------------->
hey, hey, hey hey  hey, hey, hey hey hey

chorus: guitar 1
e----------------------------------------------------------------->
B----------------------------------------------------------------->
G-4-44------------4-44------------4-44------------4-44------------>
D-4-442-22444422224-442-224444----4-442-22444422224-442-224444---->
A-2-222-22444422222-222-224444----2-222-22444422222-222-224444---->
D-----2-2244442222----2-224444--------2-2244442222----2-224444---->
All this time cant get if off my mind dance the night away, keep rockin
when the grooveís alright, rock it all night I wanna hear ya say

All the girls and the boys and people making noise just let me hear ya
shout bring em out bring em out

fill: guitar 1
e---------------------------------->
B---------------------------------->
G-44444444--------44444444--------->
D-44444444222222224444444455555555->
A-22222222222222222222222255555555->
D---------22222222--------55555555->
  ********************************
pump up your fists if you twist like this till the lights go out bring em
out bring em out

verse 1: guitar 1
e-------------------------------------------------------------------------->
B-------------------------------------------------------------------------->
G---4~-----4--------4~-----4-----6-6-6---4++4++4++44---------4++4++4++44--->
D-2-4~-----4-2-4--2-4~-----4-2-44-4-4-42-4++4++4++44224444-224++4++4++4424->
A-2-2~-----2-2-4--2-2~-----2-2-4-------2-2++2++2++22224444-222++2++2++2224->
D-2----------2-4--2----------2-4-------2------------224444-22-----------24->
wake up Iím calling you up, I need a ride weíre gonna shake up, so hurry it
up, no wasting time the girls and their makeup, exchanging looks tonight I
just ran into some other friends of mine, but someoneís coming round to
pick em up at nine

---REPEAT PRE-CHORUS
---REPEAT CHORUS

bridge: guitar 1
e-----------------------------------------------------------------6-6-6-6-->
B-----------------------------------------------------------------7-7-7-7-->
G-4-44------------4-44------------4-44------------7-7-7-7-7-7-7-7-6-6-6-6-->
D-4-442-22444422224-442-224444----4-442-22444422228-8-8-8-8-8-898-4-4-4-4-->
A-2-222-22444422222-222-224444----2-222-22444422229-9-9-9-9-9-9-9-4-4-4-4-->
D-----2-2244442222----2-224444--------2-2244442222----------------4-4-4-4-->
(hey, hey, hey) All this time canít get if off my mind dance the night
away, keep rockin when the grooveís alright, rock it all night shake, shake
it up until we break it, it wont stop till we just cant take it
[ Tab from: https://www.guitartabs.cc/tabs/h/hawk_nelson/bring_em_out_tab_ver_4.html ]
bridge: guitar 1 (r= 11th fret)
e------------------------------------------------------------------------->
B------------------------------------------------------------------------->
G------------------------------------------------------------------------->
D------------------------------------------------------------------------->
A-------------------------------------------------------44444444---------->
D-99999999\22222222-44444444/rrrrrrrr-99999999\22222222----------44444444->
  ******** ******** ******** ******** ******** ******** ******** ********
Everybody move to the beat come on everybody move to the beat come on
everybody rock till the break of dawn, everybody else just sing along

bridge: guitar 1 (r= 11th fret)
e------------------------------------------------------------------------->
B------------------------------------------------------------------------->
G-------------------------------------------------------66666666---------->
D-99999999\22222222-44444444/rrrrrrrr-99999999\22222222-66666666-44444444->
A-99999999\22222222-44444444/rrrrrrrr-99999999\22222222-44444444-44444444->
D-99999999\22222222-44444444/rrrrrrrr-99999999\22222222----------44444444->
  ******** ******** ******** ******** ******** ******** ******** ********
Everybody move to the beat come on everybody move to the beat come on
everybody rock till the break of dawn, everybody else just sing along

bridge: guitar 1 (r= 11th fret)
e------------------------------------------------------------------------->
B------------------------------------------------------------------------->
G-------------------------------------------------------66666666---------->
D-99999999\22222222-44444444/rrrrrrrr-99999999\22222222-66666666-44444444->
A-99999999\22222222-44444444/rrrrrrrr-99999999\22222222-44444444-44444444->
D-99999999\22222222-44444444/rrrrrrrr-99999999\22222222----------44444444->
Everybody move to the beat come on everybody move to the beat come on
everybody rock till the break of dawn, everybody else just sing along

solo: guitar 2                           \/eleven, not 1, 1
/e-2-2-2-2----------2-2-2-2-6-6-6-6/7-9-7-11b-9--9-9-9-7-6-7-9-7~-------->\
|B--0-0-0-0-4b54-2-0-0-0-0-0-0-0-0-----7--------------------------------->|
|G----------------------------------------------------------------------->|
|D----------------------------------------------------------------------->|
|A----------------------------------------------------------------------->|
|D----------------------------------------------------------------------->|
|                                                                         |
|solo: guitar 1                                                           |
|e----------------------------------------------------------------------->|
|B----------------------------------------------------------------------->|
|G------------------------------------------------------66666666--------->|
|D-99999999\22222222-44444444/rrrrrrrr-99999999\222222226666666644444444->|
|A-99999999\22222222-44444444/rrrrrrrr-99999999\222222224444444444444444->|
\D-99999999\22222222-44444444/rrrrrrrr-99999999\22222222--------44444444->/

All this time cant get if off my mind dance the night away, when the
grooveís alright, rock it all night I wanna hear ya say

chorus: guitar 1
e--------------------------------------->
B--------------------------------------->
G-6-6-----6-6-----6-6-----6-6----------->
D-6-6-4-4-6-6-6-6-6-6-4-4-6-6-6-6-6-6-6->
A-4-4-4-4-4-4-6-6-4-4-4-4-4-4-6-6-6-6-6->
D-----4-4-----6-6-----4-4-----6-6-6-6-6->
All this time canít get if off my mind dance the night away, when the
grooveís alright, rock it all night I wanna hear ya say

outro: guitar 1
e------------------------------------------------------>
B------------------------------------------------------>
G--4-44---4-444---4-44-------4-44---4-444---4-44------->
D--4-442-24-4445-54-442-24---4-442-24-4445-54-442-24--->
A--2-222-22-2225-52-222-24---2-222-22-2225-52-222-24--->
D------2-2-----5-5----2-24-------2-2-----5-5----2-24--->
All the girls and the boys and people making noise just let me hear ya
shout bring em out bring em out pump up your fists if you twist like this
till the lights go out bring em out bring em out

outro: guitar 1
e------------------------------------------------------>
B------------------------------------------------------>
G--4-44---4-444---4-44-------4-44---4-444---4-44------->
D--4-442-24-4445-54-442-2----4-442-24-4445-54-442-2---->
A--2-222-22-2225-52-222-2----2-222-22-2225-52-222-2---->
D------2-2-----5-5----2-2--------2-2-----5-5----2-2---->
All the girls and the boys and people making noise just let me hear ya
shout bring em out bring em out pump up your fists if you twist like this
till the lights go out bring em out bring em out