Grand Funk - Bad Time Chords & Tabs

 

Bad Time Chords & Tabs

Grand Funk Chords & Tabs

Version: 2 Type: Tab

Bad Time Tab

   
--------------------------------------------------------------------
			     GRAND FUNK  BAD TIME - solo
---------------------------------------------------------------------
Tabbed by: Bill Mcdonald
Email: macdo2@telus.net

Tuning: standard

e|------------------------------------------------------------------|
B|-------------------5----5h6p5--5-6---8-8-6--5--5----5h6p5--5-6--|
G|-----5-4--4---/5----7-------------------------7--7---------------|
D|-/7------5-------------------------------------------------------|
A|-----------------------------------------------------------------|
E|-----------------------------------------------------------------|
[ Tab from: https://www.guitartabs.cc/tabs/g/grand_funk/bad_time_tab_ver_2.html ]
e|-----------------------------------------------------------------|
B|--8-6-5---5------------------------------------------------------|
G|--------7--7-5-4-------------------------------------------------|
D|------------------5----------------------------------------------|
A|-----------------------------------------------------------------|
E|-----------------------------------------------------------------|

Chords are - C, Am, F, Dm, F, F, Dm,F, G. - Dm, G
note - G chord is in 3rd position - leave 3rd string open.


| /  slide up
| \  slide down
| h  hammer-on
| p  pull-off
| ~  vibrato
| +  harmonic
| x  Mute note