Govt Mule - Afro Blue Chords & Tabs

 

Afro Blue Chords & Tabs

Govt Mule Chords & Tabs

Version: 1 Type: Tab

Afro Blue Tab

Govít Mule - Afro Blue

As performed by Govt Mule
Transcribed by Seth Brewster


Main part of the song


e|-------7-------5---3---5--------------7------5--3--5-------|
B|-----5----/--3-------------5-------/5---/--3----------5----|
G|-----------------------------------------------------------|
D|-----------------------------------------------------------|
A|-----------------------------------------------------------|
E|-----------------------------------------------------------|

[ Tab from: https://www.guitartabs.cc/tabs/g/govt_mule/afro_blue_tab.html ]
e|----------2-----------------------2--------------(0)----0------|
B|----/3-/3---3-----1--3--5---/3-/3---3-3---1--3---(0)----0------|
G|------------------------------------------0--2---(1)----1------|
D|------------------------------------------2--0---(2)----2------|
A|------------------------------------------3------(2)----2------|
E|-------------------------------------------------(0)----0------|


*** You can either play the one string part on the C, D, E at the end or either play the chords.
I showed both ways here. I think both ways sound good and Iím pretty sure that Iíve heard
Warren play it both ways.***