Gipsy Kings - Campana Chords & Tabs

 

Campana Chords & Tabs

Gipsy Kings Chords & Tabs

Version: 1 Type: Tab

Campana Tab

   
        C#m                  Bsus4               F#m7              Bsus4
|--------------------|-------------------|-----------------|-------------------|
|---5-----------5----|----4-----------5--|---2-----------5-|----4-----------5--|
|------6-----6-----6-|-4-----4-----4-----|------2-----2----|-4-----4-----4-----|
|---------6----------|-4--------4--------|4--------4-------|-4--------4--------|
|4-------------------|-2-----------------|4----------------|-2-----------------|
|--------------------|-------------------|2----------------|-------------------|
                                                                                                

(Repeat all one time)

          A                    G#                F#m7               G#
|--------------------|-------------------|-----------------|-------------------|
|---2-----------2----|----4-----------4--|---2-----------5-|----4-----------4--|
|------2-----2-----2-|-------5-----5-----|------2-----2----|-------5-----5-----|
|---------2----------|----------6--------|4--------4-------|----------6--------|
|4-------------------|-6-----------------|4----------------|-6-----------------|
|5-------------------|-4-----------------|2----------------|-4-----------------|
                                                                                               
[ Tab from: https://www.guitartabs.cc/tabs/g/gipsy_kings/campana_tab.html ]
(Repeat last 2 bars once)
C#m                        
|---------------------|---------------------|
|---5-----------5-----|---5-----------5-----|
|------6-----6-----6--|------6-----6-----6--|
|---------6-----------|---------6-----------|
|4--------------------|4--------------------|
|---------------------|---------------------|

C#m                Bsus9       F#m7      Bsus9
Dime SeĖor por quژ no vienes a mí


C#m / Bsus9 / A / G# 

C#m                Bsus9       F#m7      Bsus9

Yo no puedo quedarme un día sin ti

C#m                Bsus9                  F#m                 G#

Los gitanos juntos siempre están mirando allí

C#m                       Bsus9       F#m7      Bsus9

Cuando sueĖo la noche me siento feliz

C#m                Bsus9                  F#m                 G#

Los gitanos juntos siempre están mirando allí

C#m                Bsus9       F#m7      Bsus9

Nai nai nai nai nai nai nai nai nai

C#m                Bsus9       F#m7      Bsus9

Dime SeĖor por quژ no vienes a mí

C#m                Bsus9                  F#m                 G#

Los gitanos juntos siempre están mirando allí

C#m                Bsus9       F#m7      Bsus9

Nai nai nai nai nai nai nai nai nai

C#m                Bsus9                  F#m                 G#

Los gitanos juntos siempre están mirando allí



.Artism.