Dream Theater - Fatal Tragedy Chords & Tabs

 

Fatal Tragedy Chords & Tabs

Dream Theater Chords & Tabs

Version: 3 Type: Tab

Fatal Tragedy Tab

   
e|------------------------------------------|
B|------------------------------------------|
G|------------4-5-7-5-4-----------4-5-7-5-4-|
D|--4-5-7-5-4-----------4-5-7-5-4-----------|
A|-7---------7---------7---------7----------|
E|------------------------------------------|

e|--------------------------------------------|
B| ---------------------------------5-7-8-7-5-|
G|------------4-5-7-5-4--5-7-9-7-5------------|
D|--4-5-7-5-4----------9----------9-----------|
A|-7---------7--------------------------------|
E|--------------------------------------------|

e|---------------7-8-10-8-7---------------8-10-12-10-8-|
B|---7-8-10-8-7--------------7-8-10-8-7----------------|
G|--9----------9------------9-----------9--------------|
D|-----------------------------------------------------|
A|-----------------------------------------------------|
E|-----------------------------------------------------|

e|----------------12-14-15-14-12--14-15-17-15-14--15-17-19-17-15-|
B|--7-8-10-8-7--15--------------17--------------19---------------|
G|-9-------------------------------------------------------------|
D|---------------------------------------------------------------|
A|---------------------------------------------------------------|
E|---------------------------------------------------------------|

e|-----14------14-----15-18p15\14------14-----------|
B|--19---18b19---18b19-----------18--17--17~~~~--19-|
G|--------------------------------------------------|
D|--------------------------------------------------|
A|--------------------------------------------------|
E|--------------------------------------------------|

e|-14-----14-----1518p16\14------14/21-|
B|---18b19--18b19-----------18--17------|
G|--------------------------------------|
D|--------------------------------------|
A|--------------------------------------|
E|--------------------------------------|

e|------------------------------------------------------------|
B|--19191920p19-0--17171719p17-0--15151517p15-0-14141415p14-0-|
G|------------------------------------------------------------|
D|------------------------------------------------------------|
A|------------------------------------------------------------|
E|------------------------------------------------------------|

e|----------------------------------------------------------------|
B|-12121214p12 0--11111112p11-0--88811p8-0-7-8p7--------7-8~~~~~~-|
G|------------------------------------------------9~~-------------|
D|----------------------------------------------------------------|
A|----------------------------------------------------------------|
E|----------------------------------------------------------------|

e|------------------------------------------------------------|
B|--7---78p7---7---------------------------------------------|
G|----9-------9---9--7---7----------------------------4-7-5p4-|
D|---------------------9-----7p5---7-----5p4--------5---------|
A|-------------------------------7----7-------5---7-----------|
E|------------------------------------------------------------|

e|---------7-10-8h10p8-7---------------7-9-7-6-7-9-7-6-|
B|-------8--------------7 8-7-6-7-8-7-6----------------|
G|---7-9-----------------------------------------------|
D|-9---------------------------------------------------|
A|-----------------------------------------------------|
E|-----------------------------------------------------|
[ Tab from: https://www.guitartabs.cc/tabs/d/dream_theater/fatal_tragedy_tab_ver_3.html ]
e|-----------------9-10-7-9-10-9-7---------------10-12-10-9-10-12-|
B|-7-8-7-6-7-8-7-6----------------7-8-7-6-7-8-7-6-----------------|
G|----------------------------------------------------------------|
D|----------------------------------------------------------------|
A|----------------------------------------------------------------|
E|----------------------------------------------------------------|

e|-10-9-14-15-14-13-14-15-14-13---------------------------------|
B|--------------------------------------------------------------|
G|------------------------------11-12-11-10---------------------|
D|------------------------------------------9-10-9-8------9-9-9-|
A|---------------------------------------------------7-7-7------|
E|--------------------------------------------------------------|

e|------------------------------------14-14-14--------19-19-19-|
B|----------------------12-12-12-12-12--------17-17-17---------|
G|-------11-11-11-11-11----------------------------------------|
D|-9-9-9-------------------------------------------------------|
A|-------------------------------------------------------------|
E|-------------------------------------------------------------|

e|------20-20--21-22-21-19-----------------------------------|
B|-19-19------------------23-20-19-23-20-19------------------|
G|-----------------------------------------21-19-18-21-19-18-|
D|-----------------------------------------------------------|
A|-----------------------------------------------------------|
E|-----------------------------------------------------------|

e|------------------------------------------------------14-|
B|----------------------------------------------------14---|
G|-16-18-19-21-19-18--------------------------------15-----|
D|------------------21-20-17----------------------16-------|
A|--------------------------21-19-17------------16---------|
E|----------------------------------21-19-18-*14-----------|

e|-18-21p18-14-------------------------------------------------|
B|------------14-----------------------------------------------|
G|--------------15------------------------------------15-16-17-|
D|----------------16-------------------------14-16-17----------|
A|------------------16-14------------12-14-15------------------|
E|-----------------------14--12-14-15--------------------------|

e|---------17-19-20/24---------14------17-14--14-----14-----19---|
B|-17-19-20---------------**17b19-17p14-----17--17b19--17-14-----|
G|---------------------------------------------------------------|
D|---------------------------------------------------------------|
A|---------------------------------------------------------------|
E|---------------------------------------------------------------|

e|-17--17-19-20-19-17-20-19-----17----------------------7-8-7-5-8-7-|
B|---19--------------------19-17--19-17-16-19-17-16-----------------|
G|-------------------------------------------------17---------------|
D|---------------------------------------------------19-------------|
A|------------------------------------------------------------------|
E|------------------------------------------------------------------|

e|-----5---------------|
B|-7-5--7-5-4-7-5-4----|
G|-----------------5-7-|
D|---------------------|
A|---------------------|
E|---------------------|

b=bend
/,\=slide
~~=vibrato
p=pull off
h=hammer on
*=Actually this is a F#maj chord.Place the fingers and play quickly the notes down and 
up.
**=It would be better if you pre-bends these bends,cause you have to play it very fast.
An questions,e-mail me;kostasmartin@yahoo.gr