Bigwig - Sore Loser Chords & Tabs

 

Sore Loser Chords & Tabs

Bigwig Chords & Tabs

Version: 1 Type: Bass Tab

Sore Loser Bass Tab

   
- Bigwig - Sore Loser
- Tabbed by: Pacu, bassist from a brazilian punk rock band called PunkAss.
- This song's pretty easy. You'll get it at first.

________________


Intro 
  [00:05] [2x]|[00:15] [3x]| [00:22] [1x]
G|------------|------------|--------------|
D|------------|------------|-----55555424-|
A|-5~-5-------|-5----------|-5------------|
E|-----5~-53~-|----5--3--3-|---5----------|

Verse
[00:24]               
G|------------------------------------|
D|------------------------------------|
A|-55555555---------------------------|
E|----------55555555-3333333333333333-|

[00:29]
G|-------------------------------------|
D|------------------------------55--55-|
A|-55555555----------------------------|
E|----------55555555-33333333----------|

[00:34]
G|-----------------------------------------|
D|------------------------------------5555-|
A|-5555----------------5555----------------|
E|------5555-3333-3333------5555-3333------|

[00:39]
G|--------------------------------------|
D|------------------------5555-55442244-|
A|-55555555-----------------------------|
E|----------55555555-3333---------------|

Pre-chorus
[00:43]
G|--------------------------------------|
D|------------------------------------5-|
A|-----------------34-55555555----------|
E|-22222222-33333-5------------555555---|

[00:48]
G|----------------------------------|
D|--------------------------777764--|
A|--------------------------------7-|
E|-22222222-33333333-555555---------|
[ Tab from: https://www.guitartabs.cc/tabs/b/bigwig/sore_loser_btab.html ]
Chorus
[00:53]
G|------------------------------------|
D|------------------------------------|
A|-55555555---------------------------|
E|----------55555555-3333333333333333-|
[00:57]
G|--------------------------------------|
D|---------------------------4/55442242-|
A|-55555555-----------------------------|
E|----------55555555-3333333------------|

Půs-chorus [2x]
G|------------------------------------|
D|------------------------------------|
A|-55555555---------------------------|
E|----------55555555-3333333333333333-|

Verse
[01:12]               
G|------------------------------------|
D|------------------------------------|
A|-55555555---------------------------|
E|----------55555555-3333333333333333-|

[01:16]
G|---------------------------------|
D|--------45-77777-975-5-4-5-5/7-5-|
A|-55555-5-------------------------|
E|---------------------------------|

[01:21]
G|-----------------------------------------|
D|------------------------------------5555-|
A|-5555----------------5555----------------|
E|------5555-3333-3333------5555-3333------|

[01:26]
G|------------------------------------|
D|------------------------------------|
A|-55555555---------------------------|
E|----------55555555-3333333333333333-|

Pre-chorus

Chorus
[01:40] [2x]
G|------------------------------------|
D|------------------------------------|
A|-55555555---------------------------|
E|----------55555555-3333333333333333-|

[01:50]
G|------------------------------|
D|-------------------4/55442242-|
A|-5---------5------------------|
E|----5--3-----5--3-------------|

Guitar Solo
[01:59]
G|------------------------------------|
D|------------------------------------|
A|-55555555---------------------------|
E|----------55555555-3333333333333333-|

[02:04]
G|------------------------------------|
D|----------------------------55445---|
A|-55555555-------------------------5-|
E|----------55555555-33333333---------|

Ending
[02:14]
G|-----|
D|-----|
A|-5-5-|
E|-----|