All That Remains - Air That I Breathe Chords & Tabs

 

Air That I Breathe Chords & Tabs

All That Remains Chords & Tabs

Version: 1 Type: Tab

Air That I Breathe Tab

   
Song: The Air That I Breathe
Artist: All That Remains
Tabbed by: Adam Cook
Email: cookadam@yahoo.com
Tuning: DGCFAD

t- tremelo pick

Intro 0:00-0:12
Guitar 1
e|---------------------------------------------------------------------------|
B|---------------------------------------------------------------------------|
G|<6times>----------------------<6times>-------------------------------------|
D|-14-11t--<6times>-<2times>-----14-11t--<6times>-<2times>-------------------|
A|----------14-11t---16-14t---------------14-11t---16-14t-16-----------------|
E|---------------------------------------------------------------------------|

Guitar 2
e|---------------------------------------------------------------------------|
B|---------------------------------------------------------------------------|
G|-6--------2--------------------6--------2---------4------------------------|
D|-6--------2--------4-----------6--------2---------4------------------------|
A|-4--------0--------4-----------4--------0---------2------------------------|
E|-------------------2-------------------------------------------------------|

Pre Verse 0:12-0:35

e|----------------------------------First Ending-----Second Ending-----------|
B|---------------------------------------------------------------------------|
G|-----6---6/4---2------2------2---------------------------------------------|
D|-----6---6/4---2------2------2-------------------------6p4-6p4-6p4---------|
A|-44444-004/2-0-0--00000--00000--------0-2-4-5-----0000----0---0------------|
E|--------------------------------0-2-4--------------------------------------|

Intro Solo 0:24-0:36
e|------------------14------------19~-2116h19p16\14h17p14\12-14-16~-16-14--23-|
B|-/14~---14-16-17~----16~-(16)-17-----------------------------------------17|
G|------13-------------------------------------------------------------------|
D|---------------------------------------------------------------------------|
A|---------------------------------------------------------------------------|
E|---------------------------------------------------------------------------|
[ Tab from: https://www.guitartabs.cc/tabs/a/all_that_remains/air_that_i_breathe_tab.html ]
Verse 0:37
e|---------------------------------------------------------------------------|
B|---------------------------------------------------------------------------|
G|-6-6-4/6-4-6-----------4--------2------------------------------------------|
D|-6-6-4/6-4-6----2p1----4----4---2---4--------------------------------------|
A|-4-4-2/4-2-4-------4-2-2----4---0---4---------2----------------------------|
E|--0-----0----000---------00-2-00-00-2-00-2-4-5-----------------------------|

Chorus 0:54
e|---------------------------------------------------------------------------|
B|---------------------------------------------------------------------------|
G|-6---4-4-------------------------------------------------------------------|
D|-6---4-4--/6-4-2--/4-2-4--6------------------------------------------------|
A|-4---2-2-------------------------------------------------------------------|
E|-4-------------------------------------------------------------------------|

Interlude 2:00
e|---------------------------------------------------------------------------|
B|------------------2---------------------5-4--------------------------------|
G|-----6-8-6------2---4--------2-1-------------------------------------------|
D|---6----------2------------4---------6-------------------------------------|
A|-4----------0------------4---------6---------------------------------------|
E|-----------------------2---------4-----------------------------------------|

Solo Chords 2:28
e|---------------------------------------------------------------------------|
B|---------------------------------------------------------------------------|
G|-6------------2------------------------------------------------------------|
D|-6------------2------------4-----------6-----------------------------------|
A|-4------------0------------4-----------6-----------------------------------|
E|---------------------------2-----------4-----------------------------------|

Outro 3:07
e|---------------------------------------------------------------------------|
B|---------------------------------------------------------------------------|
G|-6-6-4/6-4-6--------------Fifth time----6-6-4/6-4-6------------------------|
D|-6-6-4/6-4-6--------play this till end--6-6-4/6-4-6------------------------|
A|-4-4-2/4-2-4----------------------------4-4-2/4-2-4------------------------|
E|----0--------000--000-------------------4-4-2/4-2-4-000-000----------------|

| /  slide up
| \  slide down
| h  hammer-on
| p  pull-off
| ~  vibrato
| +  harmonic
| x  Mute note