Shania Twain - Youve Got A Way Chords & Tabs

 

Youve Got A Way Chords & Tabs

Shania Twain Chords & Tabs

Version: 1 Type: Tab 0 ratings
1 star 2 stars 3 stars 4 stars 5 stars
comments

Youve Got A Way Tab

    (I N T R O)             You've got a way with me...   Somehow you got me
E---5-4-2---0-0------0----0---------------0----------------2-------5-4-2---0-|
B---------0---2--------0--2--------2-0----0--0-0-----------3-------------0---|
G-------------2-----2-----2------------2--1-----------2----2-----2-----------|
D-------------2-----------2---------------2---------2---2--0-----------------|
A-------------0-----------0---------------2----------------X-----------------|
E-------------X-----------X---------------0----------------X-----------------|
[ Tab from: http://www.guitartabs.cc/tabs/s/shania_twain/youve_got_a_way_tab.html ]
to believe,in everything that I could be. I have to say, you've really got a
                                                                       way.
E--0---------------2-------5-4-2---0---0-----2-------2------------0--------|
B--2---------------3-------------0-----2-----2-------3-----3-2-0--0--2-3---|
G--2--2-2-----2----2-----2-------------2--2--2-------4------------1--------|
D--2--------2---2--0-------------------2-----4-------4------------2--------|
A--0---------------X-------------------0-----4-------2------------2--------|
E--X---------------X-------------------X-----2-------2------------0--------|
Comments