Shania Twain - When Chords & Tabs

 

When Chords & Tabs

Shania Twain Chords & Tabs

Version: 1 Type: Tab 0 ratings
1 star 2 stars 3 stars 4 stars 5 stars
comments

When Tab

Song: When 
Artist: Shania Twain 
Tabbed: L.T.L. ltl17@hotmail.com 

Intro (And Bass/Harmony Line throughout Song): 

|----------------------------------------| 
|----------------------------------------| 
|----------------------------------------| 
|-9-9-9-9-9-9-9-9------------------------| 
|-7-7-7-7-7-7-7-7-repeat 1x--------------| 
|----------------------------------------| 

|----------------------------------------| 
|----------------------------------------| 
|----------------------------------------| 
|-9-9-9-8-8-9-9--------------------------| 
|-7-7-7-6-6-7-7--7-7-7-9-9-----9---------| 
|----------------5-5-5-7-7-9-9-7---------| 
(repeated many times throughout song) 

Intro Solo 

|----------------------------------------| 
|-7-5-0-7h9~--9/10-10-10-9p7---7h9-------| 
|----------------------------9-----9b1/2-| 
|----------------------------------------| 
|----------------------------------------| 
|----------------------------------------| 

|----------------------------------------| 
|-7~-7-7h9-7p5---------------------------| 
|----------------------------------------| 
|----------------------------------------| 
|----------------------------------------| 
|----------------------------------------| 

Bridge: (Bass Unsure due to lack of Bass Guitar) 
[ Tab from: http://www.guitartabs.cc/tabs/s/shania_twain/when_tab.html ]
|----------------------------------------| 
|----------------------------------------| 
|----------------------------------------| 
|-----------6-(6---6---6-6-6-6)----------| 
|-7---7-9-6------------------------------| 
|---7------------------------------------| 
NOTE: Play each note above as 8 eigth notes except those in brackets 
(The Bridge Line) 

Chorus: 

|----------------------------------------| 
|----------------------------------------| 
|----------------------------------------| 
|----------------------------------------| 
|-7---7-(6-6-6-6)-7---7-(6-6-6-6)-7-7-7--| 
|---7---------------7--------------------| 
NOTE: Play each note above as 8 quarter notes except those in brackets 
(The Chorus Line) 

Chorus Solo: 

(SAME AS INTRO SOLO) 

Final Solo: 

I don't have enough time to actually tab out every single note because it 
was probably improvised at the time. Therefore, I just gave you a basic 
range of notes to fool around with until you feel you've got a version of 
the solo that you feel comfortable with: 

|------------------------------------------| 
|-9 7h9p7---10 9h10p9----00-55-77-99-12-12-| 
|---------7-----------7--------------------| 
|------------------------------------------| 
|------------------------------------------| 
|------------------------------------------| 
Comments