Shania Twain - Man I Feel Like A Woman Chords & Tabs

 

Man I Feel Like A Woman Chords & Tabs

Shania Twain Chords & Tabs

Version: 1 Type: Tab 0 ratings
1 star 2 stars 3 stars 4 stars 5 stars
comments

Man I Feel Like A Woman Tab

   
Intro / Lick
e---------------------------------    --------------------------
b---------------------------------    --------------------------
g----3--3--3----3-------3-3-------    ---3--3-3---3p0-----3-3---
d-----------------5---3-----------    ------------------3-------
a---------------------------------    --------------------------
e--------------------------------- or --------------------------

A
D A
I'm going out tonight, I'm feelin' alright, gonna let it all hang out,
A
D A
Wanna make some noise, really raise my voice, Yeah, I wanna scream and
shout,
(Intro lick --- pause)
A
D A
No inhibitions, make no conditions, get a little, outta line,
A
D A
Ain't gonna act, politically correct, I only wanna have a good time,

BRIDGE:
G                                                       A
Best thing about being a woman, Is the prerogative to have a little fun
and...

CHORUS:
E
Oh, oh, oh, go totally crazy - forget I'm a lady, Men's shirts- short skirts
              C#m                                   A               E
Oh, oh, oh, really go wild - yea, doin' it in style
[ Tab from: http://www.guitartabs.cc/tabs/s/shania_twain/man_i_feel_like_a_woman_tab.html ]
Oh, oh, oh, get in the action - feel the attraction, color my hair - do what
I dare
             C#m                                         A
F#m (pause)
Oh, oh, oh, I wanna be free - yea to feel the way I feel, Man! I feel like a
woman!

(Intro lick twice)

The girls need a break - tonight we're gonna take, The chance to get out on
the town
We don't need romance - we only wanna dance, we're gonna let our hair hang
down

(Bridge)
(Chorus Twice)
(Instrumental - G-D-A, G-D-A)
(Bridge - pause at "fun")
(Chorus)

(Intro Lick throughout end, 3 measures using A-G-D, A-G-D, A-G-D)

I get totally crazy
Can you feel it
Come, come, come on baby
I feel like a woman

Guest what!
Solo

E--9/-----------------9-9-9/--------------------------------8---8---8-9-8---
B----9/--12b-12b\-6/8-8-8-8/--------------------8--------/9-9-9-9-9-9-9-9---
G----------------------8-8-----------6b-------6-8-6b-----/8---8---8------8--
D--------------------------------6-8-6-----6-8-8----8ph---------------------
A-----------------------------6/8-8-8---6/8---------------------------------
E---------------------------------------------------------------------------


E------15----15----15-16-15---16h18-18-18-16h18-18-18-16h18-18-18-13-------------|
B--/16-16-16-16-16-16-16-16-----------------------------------------14------13---|
G--/15----15----15---------15-------------------------------------------15--13---|
D---------------------------------------------------------------------15--15-----|
A--------------------------------------------------------------------------------|
E--------------------------------------------------------------------------------|
Comments