Shania Twain - From This Moment Chords & Tabs

 

Shania Twain Chords & Tabs

Version: 1 Type: Tab 0 ratings
1 star 2 stars 3 stars 4 stars 5 stars
comments

From This Moment Tab

Intro
------15-14-15----------15-14-15------------15-14-15------|
----------------12--13------------13--15---------------15-|
-12-------------------------------------------------------|
----------------------------------------------------------|
----------------------------------------------------------|
----------------------------------------------------------|

---------14------15----------------------------------|
-----15------15--------------------------------------|
-14--------------------------------------------------|
-----------------------------------------------------|
-----------------------------------------------------|
-----------------------------------------------------|
[ Tab from: http://www.guitartabs.cc/tabs/s/shania_twain/from_this_moment_tab.html ]
Solo
------12-14-14-----------------------------------------|
-------------------------------------------------------|
--14------------16b-vvvvvvvv------16--14--13-11--------|vvvvvvv/
-------------------------------------------------------|
-------------------------------------------------------|
-------------------------------------------------------|

-16-----16-17b-17b--------------19b-------------------|
----17---------------15----17-------------------------|
------------------------------------------------------|
------------------------------------------------------|
------------------------------------------------------|
------------------------------------------------------|

Fill after: ....and you're the answers to my prayers from up above

-----------|
-----------|
-----------|
-----------|
-----2---0-|
--2--------|
Comments