Rodney Carrington - The Beer Song Chords & Tabs

 

The Beer Song Chords & Tabs

Rodney Carrington Chords & Tabs

Version: 1 Type: Bass Tab 0 ratings
1 star 2 stars 3 stars 4 stars 5 stars
comments

The Beer Song Bass Tab

					The Beer Song

				      Rodney Carrington



There's an intro that I haven't put in but you can figure it out for yourself's. 
The rest of the song should be accurate enough.
During the song you'll see (H) which menas you hold the note.



|---------------------------------------------------|-----------------------------------|
|-------------------4-------4-------6-------6-------|-----------------------------------|
|---4-------4-----------4-------4-------6-------6---|---4-------4-------4-------4-------|
|-------4-------4-----------------------------------|-------4-------4-------4-------4---|

|-----------------------------------|-----------------------------------|-------------------
|---4-------4-------6-------6-------|-----------------------------------|---4-------4-------
|-------4-------4-------6-------6---|---4-------4-------4-------4-------|-------4-------4---
|-----------------------------------|-------4-------4-------4-------4---|-------------------

|-------------------|-----------------------------------|-----------------------------------|
|---6-------6-------|-----------------------------------|---4-------4-------6-------6-------|
|-------6-------6---|---4-------4-------4-------4-------|-------4-------4-------6-------6---|
|-------------------|-------4-------4-------4-------4---|-----------------------------------|

|-------------------|--------------------------------------------------------------------------
|-------------------|---4-------4-----------------------6-------6------------------------------
|---4-------4-------|-------4-------4---4-------4-----------6-------6---4------4---5---6-------
|-------4-------4---|-----------------------4-------4-----------------------4--------------6---

                   (H)
|-----------------------|
|-----------6-------6---|
|---6-----------6-------|
|-------6---------------|

|---------------------------------------------------|-----------------------------------|
|-------------------4-------4-------6-------6-------|-----------------------------------|
|---4-------4-----------4-------4-------6-------6---|---4-------4-------4-------4-------|
|-------4-------4-----------------------------------|-------4-------4-------4-------4---|

|-----------------------------------|-----------------------------------|-------------------
|---4-------4-------6-------6-------|-----------------------------------|---4-------4-------
|-------4-------4-------6-------6---|---4-------4-------4-------4-------|-------4-------4---
|-----------------------------------|-------4-------4-------4-------4---|-------------------
[ Tab from: http://www.guitartabs.cc/tabs/r/rodney_carrington/the_beer_song_btab.html ]
|-------------------|-----------------------------------|-----------------------------------|
|---6-------6-------|-----------------------------------|---4-------4-------6-------6-------|
|-------6-------6---|---4-------4-------4-------4-------|-------4-------4-------6-------6---|
|-------------------|-------4-------4-------4-------4---|-----------------------------------|

|-------------------|--------------------------------------------------------------------------
|-------------------|---4-------4-----------------------6-------6------------------------------
|---4-------4-------|-------4-------4---4-------4-----------6-------6---4------4---5---6-------
|-------4-------4---|-----------------------4-------4-----------------------4--------------6---

                   (H)
|-----------------------|
|-----------6-------6---|
|---6-----------6-------|
|-------6---------------|

 (Guitar solo part)
|---------------------------------------------------|-----------------------------------|
|-------------------4-------4-------6-------6-------|-----------------------------------|
|---4-------4-----------4-------4-------6-------6---|---4-------4-------4-------4-------|
|-------4-------4-----------------------------------|-------4-------4-------4-------4---|

|-----------------------------------|---------------|
|---4-------4-------6-------6-------|---------------|
|-------4-------4-------6-------6---|---4-------4---|
|-----------------------------------|-------4-------|

|---------------------------------------------------|-----------------------------------|
|-------------------4-------4-------6-------6-------|-----------------------------------|
|---4-------4-----------4-------4-------6-------6---|---4-------4-------4-------4-------|
|-------4-------4-----------------------------------|-------4-------4-------4-------4---|

|-----------------------------------|-----------------------------------|-------------------
|---4-------4-------6-------6-------|-----------------------------------|---4-------4-------
|-------4-------4-------6-------6---|---4-------4-------4-------4-------|-------4-------4---
|-----------------------------------|-------4-------4-------4-------4---|-------------------

|-------------------|-----------------------------------|-----------------------------------|
|---6-------6-------|-----------------------------------|---4-------4-------6-------6-------|
|-------6-------6---|---4-------4-------4-------4-------|-------4-------4-------6-------6---|
|-------------------|-------4-------4-------4-------4---|-----------------------------------|

|-------------------|--------------------------------------------------------------------------
|-------------------|---4-------4-----------------------6-------6------------------------------
|---4-------4-------|-------4-------4---4-------4-----------6-------6---4------4---5---6-------
|-------4-------4---|-----------------------4-------4-----------------------4--------------6---

                   (H)
|-----------------------|
|-----------6-------6---|
|---6-----------6-------|
|-------6---------------|
Comments