Popa Chubby - Stoop Down Baby Chords & Tabs

 

Stoop Down Baby Chords & Tabs

Popa Chubby Chords & Tabs

Version: 1 Type: Tab 0 ratings
1 star 2 stars 3 stars 4 stars 5 stars
comments

Stoop Down Baby Tab

   
Stoop Down Baby 

Chords :
C7 | C7 | C7 | C7 | F7 | F7 | C7 | C7 | G7 | F7 | C7 | C7 | 

Riff :

C7
|------------------------8.----------------------------------------|
|------------------------8.----------------------------------------|
|--------X--X---0--------8.-T-9------------------------------------|
|--------X--X------------8.----------------------------------------|
|--1--3--X--X-----1--3---------------------------------------------|
|------------------------------------------------------------------|
F7(9)
|------------------------8.----------------------------------------|
|------------------------8.----------------------------------------|
|--------X--X---5--------8.----------------------------------------|
|--------X--X------------7.----------------------------------------|
|--6--8--X--X-----6--8---------------------------------------------|
|------------------------------------------------------------------|
G7(9)
|------------------------10.---------------------------------------|
|------------------------10.---------------------------------------|
|---------X--X---7-------10.---------------------------------------|
|---------X--X------------9.---------------------------------------|
|--8--10--X--X-----8--10-------------------------------------------|
|------------------------------------------------------------------|
Intro : (as heard on " Hit The High Hard One")
|------------------------8.----------------------------8.----------|
|------------------------8.----------------------------8.----------|
|--------X--X---0--------8.-T-9---------X--X---0-------8.-T-9------|
|--------X--X------------8.-------------X--X-----------8.----------|
|--1--3--X--X-----1--3------------1--3--X--X-----1--3--------------|
|------------------------------------------------------------------|

|------------------------8.-------11-11-11-11--10---8--------------|
|------------------------8.-------11-11-11-11--10---8--------------|
|--------X--X---0--------8.-T-9----8--8--8--8---8---8-h-9----------|
|--------X--X------------8.----------------------------------------|
|--1--3--X--X-----1--3---------------------------------------------|
|------------------------------------------------------------------|

|--10b-8---8-----------8.---------------------------8.-------------|
|--10b-8---8-----------8.---------------------------8.-------------|
|--10b-8h9----0--------8.-T-9--------X--X---0-------8.-T-9---------|
|----------------------8.------------X--X-----------8.-------------|
|---------------1--3-----------1--3--X--X-----1--3-----------------|
|------------------------------------------------------------------|

|-----------------------8.-------------------------10-/-8.-L-R-----|
|-----------------------8.-------------------------10-/-8.-E-I-----|
|--------X--X---0-------8.-T-9-------X--X---0------10-/-8.-T-N-----|
|--------X--X-----------8.-----------X--X-----------9-/-7.---G-----|
|--1--3--X--X-----1--3---------1--3--X--X-----1--3-10-/-8.---------|
|------------------------------------------------------------------|

|-----8---8----8---11--8--------------------8-8---8---------------|
|-------8---11---8--8--8-------------10-(8)-8h10.-8---------------|
|--10B-------------------10B-10-8----10--8----------10p8----8T9---|
|---------------------------------10---------------------10-------|
|-----------------------------------------------------------------|
|-----------------------------------------------------------------|

|----------------------------/8.--8-10-8-------------------8------|
|----------------------------/8.--8-10-8-------------------8------|
|------10-8-10-8T9------10~~-/8.--8-10-8------X--X--0------8T9----|
|--10.----------------9--9~~-/7.--------------X--X----------------|
|------------------/10-------/8.---------1--3-X--X----1--3--------|
|-----------------------------------------------------------------|

|--11-11-10-8-----4--3.-------------------------------------------|
|--11-11-10-8-----4--3.--R-|--------------------------------------|
|-----------8T9---4--3.--A-|--------------------------------------|
|-----------------3--2.--K-|-------------------1T2----------------|
|-----------------4--3.--E-`´--1-1-1-1-1-1-1-3-----X--1-1-1-1-1---|
|-----------------------------|      PM       |--------|  PM    |-|
[ Tab from: http://www.guitartabs.cc/tabs/p/popa_chubby/stoop_down_baby_tab.html ]
|--------------------------------------------------------------------|
|-----------------------------------------------------4---4-6B6-4-6--|
|------------------------------3---3--5~~--3h4p3---/5---5-----------5|
|3-1T2-1-----------1---1-3-/-5---5---------------5-------------------|
|--------3-2-1-1h3---3-----------------------------------------------|
|--------------------------------------------------------------------|

|-----8---8---8---10B~~-10B-10-8-------------------------------------|
|-------8---8---8-----------------------10b-10p8---------------------|
|--/9----------------------------10-9-8-10b------10-8h9p8----8~~-----|
|---------------------------------------------------------10---------|
|--------------------------------------------------------------------|
|--------------------------------------------------------------------|

|--/10.~-10.~-10-10--8-----------------------------------------------|
|--/10.~-10.~-10-10--8h10-8------------------------------------------|
|--/10.~-10.~-10-10---------10-9-8-----10-8----------------8---------|
|-----------------------------------10------10-8------8-10---8T10----|
|------------------------------------------------8-10----------------|
|--------------------------------------------------------------------|

|-----------------8---8~~-8-8-11-13-13-11-13B-13~-11----11b----------|
|---------------8---8--------------------------------13--------------|
|----8T9--8T10-------------------------------------------------------|
|--10---10-----------------------------------------------------------|
|--------------------------------------------------------------------|
|--------------------------------------------------------------------|

|-13B13p11-----------------------------------------------------------|
|---------13~-13-11-13~------11~---11~---11~---11~---11~-13----------|
|------------------------/12~---12~---12~---12~---12~-------12-11-10-|
|--------------------------------------------------------------------|
|--------------------------------------------------------------------|
|--------------------------------------------------------------------|

|-------------------8------8----11~-8--------------------------------|
|----------------11---8-11---8--10~-8h10p8---------------------------|
|--8-10-8-10-9-8---------------------------10-8h9p8---8h9p8----10B---|
|--------------------------------------------------10-------10-------|
|--------------------------------------------------------------------|
|--------------------------------------------------------------------|

|--8-----------------------------------------------------------------|
|--8h10p8----------10B-10-9-8-7-6-5----------------------------------|
|---------10-8h9p8--------------------------------10----8~~----------|
|-----------------------------------5~~------8h10----10--------------|
|----------------------------------------/10--------------------8T10-|
|-----------------------------------------------------------8T10-----|

|---------------/10.-10.--X-10.--X-10.--X-10.--9--8.--8-8--8---------|
|---------------/10.-10.--X-10.--X-10.--X-10.--9--8.--8-8--8---------|
|-------10-8~~--/10.-10.--X-10.--X-10.--X-10.--9--8.--8-8--8T9-------|
|--8h10---------/9.---9.--X-(9).-X-(9).-X-(9).-8--7.-----------------|
|--------------------------------------------------------------------|
|--------------------------------------------------------------------|

|--X-10--8----11.-11.-11-11-11-11--10--8.--4.--3.--------------------|
|--X-10--8----11.-11.-11-11-11-11--10--8.--4.--3.--------------------|
|--X-10--8h9---8.--8.--8--8--8--8---8--8.--4.--3.--------------------|
|------------------------------------------3.--2.--------------------|
|--------------------------------------------------------------------|
|--------------------------------------------------------------------|

End :

|--10B-10-8.------------3--5.--3--5.--3--L--R------------------------|
|-----------------------3--5.--3--5.--3--E--I------------------------|
|------------10-9-8-----3--5.--3--5.--3--T--N------------------------|
|-------------------10.-2--4.--2--4.--2-----G------------------------|
|-------------------------------------3------------------------------|
|--------------------------------------------------------------------|

b:1/4 bend
B:1/2 bend
h:hammer on
t:thumb
T:Trill
/:slide 
~:vibrato
PM:Palm Muted
.:dotted note
---------------------------------------------
Transcription: Frédéric Winne
choko_tof@yahoo.fr
Find many others tabs on the Sam's Popa Chubby site
http://www.popachubby.net


Comments