Popa Chubby - San Catri Chords & Tabs

 

San Catri Chords & Tabs

Popa Chubby Chords & Tabs

Version: 1 Type: Tab 0 ratings
1 star 2 stars 3 stars 4 stars 5 stars
comments

San Catri Tab

   
San Catri (Popa Chubby - « Gas Money »)


Chords :


F#m - A

Intro :


|--9-9.--9--------------------------------------------------|
|--9h10.-9-----------------------9h10p9----9----------------|
|----------9h11p9----9------9-11--------11---9h11p9----9----|
|-----------------11---9h11-------------------------11------|
|-----------------------------------------------------------|
|-----------------------------------------------------------|

|-----------------------LR-----------------^-*--------------|
|------------9-9--9-----(2)—3p2---LR-------|---X------------|
|-------9-11-9h11-9------2-----2--2--------|---X------------|
|--9h11-------------11/--2------2-2--------|---X------------|
|------------------------0--------0--------|---X------------|
|-----------------------------------------------------------|
*string noise


Theme :


|--5-7-5-------LR---------------------------LR--------------|
|--5-7-5-------2----------2-------LR----3p2-2---------------|
|--------------2--------2-2-------2-----------2-------------|
|------------------4--4-----------2---X------(2)------------|
|------------------4-4------------0---0---------------------|
|---------0-2---------------0-2-0---------------------------|

|-----5-7-5-----------9-9--9--------------------------------|
|--X--5-7-5-------2---9h10-9--9--9--------------------------|
|--X--------------------------11-9-9-9.h11p9----------------|
|--X----------(4)----------------------------11/------------|
|--------------4--------------------------------------------|
|------------0-2--------------------------------------------|

|------5------5----5-L--------------------------------------|
|-----5-----5---5--5--E-------------------------------------|
|----6---6h7-------6---T-R----------------------------------|
|--/7--------------7------I---------------------------------|
|--------------------------N--------------------------------|
|---------------------------G-------------------------------|

|--5-7-5------------------------------------5-------5----5--|
|--5-7-5-------2-2-------------------------5------5---5--5--|
|-------------(2)------2h4-2-4p2---2---6--6----6h7-------6--|
|------------------2h4-----------4----/7-----------------7--|
|--------------------------------------------------------LR-|
|---------0-2-----------------------------------------------|

|-----5-7-5------2----2--------2----------------------------|
|--X--5-7-5------------2--------2----LR---3.--2-------------|
|--X--------------------2------------2----2.--2-------------|
|--X---------------------------------2----4.--2-------------|
|------------------------------------0----0.--0-------------|
|------------0-2----X------0-2-----0------------------------|

|--5-7-5-------2|-L--------LR---------5-7-5-------2|-L------|
|--5-7-5-------2|-R--------(2)—3p2----5-7-5-------2|-R------|
|--------------2|-----------2-----2---------------2|--------|
|--------------4|-----------2------2--------------4|--------|
|---------------v-----------0----------------------v--------|
|---------0-2---------0-2-0------------------0-2------------|

|-------LR---------5-7-5----------9--9----------------------|
|-------(2)-3p2----5-7-5--------9h10-9----------------------|
|--------2-----2-----------------------11-9-9.h11p9---------|
|--------2------2-----------------------------------11/-----|
|--------0--------------------------------------------------|
|--0-2-0------------------0-2-------------------------------|

|------5-------5----5---5-7-5-------2|-L-------LR-----------|
|-----5------5---5--5---5-7-5-------2|-R-------(2)-2h3.--2--|
|----6----6h7-------6---------------2|----------2—-2-----2--|
|--/7---------------7---------------4|----------2—-2h4.--2--|
|-------------------LR---------------v----------0--------0--|
|------------------------------0-2--------0-2-0-------------|

|--R-^--------------------------------------17--------------|
|--A-|17FB—17FB~~-------------------------------------------|
|--K-|X-----------16FB16p14-16~~------14-16FB--16-14~~------|
|--E-|X-------------------------14h16-----------------------|
|-----------------------------------------------------------|
|-----------------------------------------------------------|

|-----------------------------------------------------------|
|----------------------------------16-----------------------|
|-----------------------------(14)-16FB16-14-16-14h16p14----|
|--------14h16p14----14-14h16-------------------------------|
|--14h16----------16----------------------------------------|
|-----------------------------------------------------------|

|--------------------------------------------9~~----7----5--|
|-----------------------------------------------------------|
|-----14-16-16FB16p14-16-14h16p14---14~~\--/9----/7----/6---|
|--16----------------------------16-------------------------|
|-----------------------------------------------------------|
|-----------------------------------------------------------|

|-------------------------2----2-5FB—-5~~-----5---7-----9~~-|
|-----------------------2------------------/7---/9--/10-10~-|
|------------------2-4FB----4FB-----------------------------|
|--------------2-4------------------------------------------|
|--------2-3-4----------------------------------------------|
|--0-2-5----------------------------------------------------|

|--9h10-9-----------2------2---2-5B-2-----------------------|
|---------10--------2----2---5--------5-2---2-5-2-----------|
|------------9~~/-----4FB-----------------4-----------------|
|-----------------------------------------------------------|
|-----------------------------------------------------------|
|-----------------------------------------------------------|

|------------------------LR---------5-7-5—-(2)--------------|
|------------------------3.--2------5-7-5—-(2)--------------|
|--4-2-4/5\4p2--4---2~~--2.--2-------------(2)--------------|
|-----------------4------4.--2------------------------------|
|------------------------0.--0------------------------------|
|------------------------------------------(2)--X-0-2-5-----|

|-------------------------5------------------5-5.-5---------|
|--------------------------------------------5h7.-5---------|
|----------2-4FB4p2-4-2-4FB-4-4p2-4p2--2~~----------2/4-2---|
|------2-4---------------------------4----------------------|
|--2-4------------------------------------------------------|
|-----------------------------------------------------------|

|-------------2-------------9~~--9h10-9---------------------|
|-------------2-------------------------10------------------|
|-------------2-----------/9---------------9-7-6-7-6-6h7p6--|
|--4-2----2---2---2---2-------------------------------------|
|-----2/4--4--------4---------------------------------------|
|-|    PM   |---|   PM  |-----------------------------------|

|-----------------------------------------------------------|
|------------------------------------------------5h7p5------|
|----6-------------------------------2/4-2h4b-2-------------|
|--7---7----------------2-4-2/4—-2h4------------------------|
|--------7-5/4-2/4—-2/4-------------------------------------|
|-----------------------------------------------------------|

|--5h7p5--9-10p9--10-12-10-9----------^---------------------|
|----------------------------10-10~~--|R-17FB—17FB17--------|
|-------------------------------------|A--------------------|
|-------------------------------------|K--------------------|
|-------------------------------------|E--------------------|
|-----------------------------------------------------------|

|-----------------------------17----------------------------|
|-----------------------------------------------------------|
|--16FB16p14-16FB16-16FB16-16FB-16-14-16-14h16p14----14~~---|
|-------------------------------------------------16--------|
|-----------------------------------------------------------|
|-----------------------------------------------------------|

|--17FB-/--17FB-/-17~~--(0)X/*------------------------------|
|-----------------------(0)X/-------------------------------|
|--------------------------------4FB4--2-4-2h4p2-4~-2-------|
|--------------------------------4FB4--2-4------------------|
|-----------------------------------------------------------|
|-----------------------------------------------------------|
*string noise
|-------2----2---5--2---4--2--------------------------------|
|-----2---5B---2------2------5--2---------------------------|
|--4FB-----------------------------4FB4p2-4p2---2~~---------|
|---------------------------------------------4-------------|
|-----------------------------------------------------------|
|-----------------------------------------------------------|

|----5-----7----9----7--5-5-5-------------------------------|
|-----------------------5h7-5-------------------------------|
|--/6---/7---/9---/7----------6\4--2-----------------2------|
|------------------------------------2/4~~-----2--4---------|
|------------------------------------------2h4--------------|
|-----------------------------------------------------------|

|--------------------------2----2-2----2-2-----2-2----------|
|------------------------2------2-2----2-2-----2-2----------|
|--4.-4FB4p2h4--2--4—-4FB-----4FB----4FB-----4FB------------|
|-------------4---------------------------------------------|
|-----------------------------------------------------------|
|-----------------------------------------------------------|

|-----2--------------------------5--------------------------|
|-------5-2------------------------5-7~~-7-9-10~~-9-10/12~~-|
|--4FB------4-2-4FB4p2-4---2-2/6----------------------------|
|------------------------4----------------------------------|
|-----------------------------------------------------------|
|-----------------------------------------------------------|

|-----------------------------------------------------------|
|--10-12-10h12p10----10/------------------------------------|
|-----------------11----------------------------------------|
|-----------------------------------------------------------|
|-----------------------------------------------------------|
|-----------------------------------------------------------|


Bridge I :


|-----------------------------------------------------------|
|-----------------------------------------------------------|
|--2-2-2-2-2-2-2-2-2-2-2-2-2--2---7-7-7-7-/-9-9-9-9-/-------|
|--2-2-2-2-2-2-2-2-2-2-2-2-2--2---x-x-x-x---x-x-x-x---------|
|--0-0-0-0-0-0-0-0-0-0-0-0-0—-3B--5-5-5-5-/-7-7-7-7-/-------|
|-----------------------------------------------------------|

|-----------------------------------------------------------|
|-----------------------------------------------------------|
|-11-11-11-11-/-13-13-13-13-\-9-9-9-9-/-11-11-11-11-/-------|
|--x--x--x--x----x--x--x--x---x-x-x-x----x--x--x--x---------|
|--9—-9--9--9-/-11-11-11-11-\-7-7-7-7-/--9--9--9--9-/-------|
|-----------------------------------------------------------|

|-----------------------------------------------------------|
|-----------------------------------------------------------|
|--13-13-13-13-/-14-14-14-14-/-16-16-16-16-/-18-18-18-18-/--|
|---x--x--x--x----x--x--x--x----x--x--x--x----x--x--x--x----|
|--11-11-11-11-/-12-12-12-12-/-14-14-14-14-/-16-16-16-16-/--|
|-----------------------------------------------------------|

|---------------------LR------------------------------------|
|---------------------2----2h3.--2--------------------------|
|--19-19-19-19-/-21/--2----2-----2--------------------------|
|---x--x--x--x----x---2----2h4.--2--------------------------|
|--17-17-17-17-/-19/--0----0-----0--------------------------|
|-----------------------------------------------------------|


Theme II :


|--5-7-5-------2|LR-----------------------------------------|
|--5-7-5-------2|---------LR—-3p2---L---R-------------------|
|--------------2|---------2------2---E---I------------------|
|--------------4|---------2-------2---T---N-----------------|
|---------------V---------0----------------G----------------|
|---------0-2-------0-2-0-----------------------------------|

|--5-7-5-------2|LR-----------------------------------------|
|--5-7-5-------2|---------LR—-3p2---L---R-------------------|
|--------------2|---------2------2---E---I------------------|
|--------------4|---------2-------2---T---N-----------------|
|---------------V---------0----------------G----------------|
|---------0-2-------0-2-0-----------------------------------|

|--5-7-5--------9-9--9-----------------------5-------5------|
|--5-7-5--------9h10-9----------------------5---------5-----|
|----------------------11-9-9h11p9----9----6---6h7p6---6----|
|----------------------------------11----/7-----------------|
|-----------------------------------------------------------|
|---------0-2-----------------------------------------------|

|--5-----5-7-5-------2|LR-----------------------------------|
|--5-----5-7-5-------2|----------LR—-2h3.--2----17/---------|
|--6-----------------2|----------2---2-----2----17/---------|
|--7-----------------4|----------2---2h4.--2----------------|
|--LR-----------------V----------0---0-----0----------------|
|----------------0-2-------0-2-0----------------------------|

|----9--9-Tremolo-------8/9-Tremolo-----10-Tremolo----------|
|--9/10-----------------------------------------------------|
|-----------------------------------------------------------|
|-----------------------------------------------------------|
|-----------------------------------------------------------|
|-----------------------------------------------------------|

|--10\9-Tremolo-------8/9-Tremolo------8/9-Tremolo-----10/--|
|-----------------------------------------------------------|
|-----------------------------------------------------------|
|-----------------------------------------------------------|
|-----------------------------------------------------------|
|-----------------------------------------------------------|

|-------------------2---2-5-2---4-2---2---------------------|
|-----------------2---5------(5)----5---5-2-----------------|
|-------------2-4FB--------------------------4/5\4p2-4---2--|
|----------2-4-----------------------------------------4----|
|-------2-4-------------------------------------------------|
|--0-2-5----------------------------------------------------|

|-----5--5---5---5-------5----------------------------------|
|--------5h7-5h7-5—7p5-2------------------------------------|
|--/6----------------------5\4-2-4p2---2-4B4FB4-2-4-2h4p2---|
|------------------------------------4----------------------|
|-----------------------------------------------------------|
|-----------------------------------------------------------|

|------------------------------------------------5----------|
|--------5FB--5-3-2-2h3p2h3p2---2------------------5-7~~----|
|----2~~----------------------2---4FB4p2-4-2----------------|
|--4--------------------------------------------------------|
|-----------------------------------------------------------|
|-----------------------------------------------------------|

|-----9----7----4----2----9----5----4----2----5----7----9---|
|-----------------------------------------------------------|
|--/7---/6---/4---/2---/7---/6---/4---/2---/6---/7---/9-----|
|-----------------------------------------------------------|
|-----------------------------------------------------------|
|-----------------------------------------------------------|

|------10----9-----7----------------------------------------|
|--------------------------^R-17FB~~------------------------|
|--/11----\9----\7---\6~~--|A---------16FB16p14-16-14-------|
|--------------------------|K-------------------------------|
|--------------------------|E-------------------------------|
|-----------------------------------------------------------|

|-----17----------------------------------------------------|
|-----------------------------------------------------------|
|--16FB--16-14-16-14h16p14----14-16B16FB16-14-16-16-14~~----|
|--------------------------16-------------------------------|
|-----------------------------------------------------------|
|-----------------------------------------------------------|

|-----------------------------------------------------------|
|--2-/-14----19p17-----19p17-----19p17-----19p17------------|
|--2-/-14---------18p16-----18p16-----18p16-----18p16-------|
|--2-/-14---------------------------------------------------|
|-----------------------------------------------------------|
|-----------------------------------------------------------|
[ Tab from: http://www.guitartabs.cc/tabs/p/popa_chubby/san_catri_tab.html ]
|-----------------------------------------------------------|
|--19p17-----19p17-----19p17-----19p17----19p17-------------|
|------18p16-----18p16-----18p16-----18p16-----18p16--------|
|-----------------------------------------------------------|
|-----------------------------------------------------------|
|-----------------------------------------------------------|

|-----------------------------------------------------------|
|--19p17-----19p17-----19p17-----19p17----19p17-------------|
|------18p16-----18p16-----18p16-----18p16-----18p16--------|
|-----------------------------------------------------------|
|-----------------------------------------------------------|
|-----------------------------------------------------------|

|-----------------------------------------------------------|
|--19p17-----19p17-----19p17-----19p17----19p17-------------|
|------18p16-----18p16-----18p16-----18p16-----18p16--------|
|-----------------------------------------------------------|
|-----------------------------------------------------------|
|-----------------------------------------------------------|

|-----------------------------------------------------------|
|--19p17-----19p17-----19p17-----19p17----19p17-------------|
|------18p16-----18p16-----18p16-----18p16-----18p16--------|
|-----------------------------------------------------------|
|-----------------------------------------------------------|
|-----------------------------------------------------------|

|--------------------17-------------------------------------|
|--19p17----17-19-------17FB~~-17-14-17-17FB17p14-17~~-/----|
|--------18-------18----------------------------------------|
|-----------------------------------------------------------|
|-----------------------------------------------------------|
|-----------------------------------------------------------|


Bridge II :


|-----------------------------------------10----------------|
|--------------------------------------10---10--------------|
|------2--2-2-2-2-2-2-2-2-2-2--2--2---/11-----11-11h12------|
|------2--2-2-2-2-2-2-2-2-2-2--2--2-------------------------|
|------0--0-0-0-0-0-0-0-0-0-0--0—-3B------------------------|
|-----------------------------------------------------------|

|--10-------10---12-10----------12----------12-------12-----|
|----10-------10------10----------12----------12-------12---|
|------12-11------------11-11/13----13-13h14----14-13-------|
|-----------------------------------------------------------|
|-----------------------------------------------------------|
|-----------------------------------------------------------|

|--14-10------------------------------------------2---------|
|-------10---------------2---2---2------------2---2-2---2---|
|---------13---------2---2h4-2h4-2h4p2---2-4—-2h4---2h4-2---|
|----------------2/4---4---------------4--------------------|
|------------0-0--------------------------------------------|
|-----------------------------------------------------------|

|--/5--5-----------5/-L-------------------------------------|
|--/5---5----5-----5/--E------------------------------------|
|--/6----6-6h7—----6/---T-R---------------------------------|
|--/7--------------7/------I--------------------------------|
|---------------------------N-------------------------------|
|------------------5/--------G--------17/-------------------|


Theme III :



|--2-2-2-2---2-2-2-2-----2-2-2-2-2-2-----2-2-2-2-----2-2-2--|
|-----------------------------------------------------------|
|----2-4-4/5-4-2-4-4/5\4-2-4---2-4-4/5\4-2-4-2-4/5\4-2-4----|
|--4-------------------------4---------------------------4--|
|-----------------------------------------------------------|
|-----------------------------------------------------------|
Finger style
|--2-2-2-----2-2-2-----2-2-2-2-2-2-2-----2-2-2-2-2-----2-2--|
|-----------------------------------------------------------|
|--2-4-4/5\4-2-4-4/5\4-2-4-2---2-4-4/5\4-2-4-2-2-4/5\4-2-4--|
|----------------------------4------------------------------|
|-----------------------------------------------------------|
|-----------------------------------------------------------|

|--2-2-2-----2-2-2-2-2-----2-2-2-2-2-----2-2-2-----2--------|
|-----------------------------------------------------------|
|----2-4/5\4-2-4-2-4-4/5\4-2-4---2-4/5\4-2-4-4/5\4-2--------|
|--4---------------------------4----------------------------|
|-----------------------------------------------------------|
|-----------------------------------------------------------|

|--------------2-2-2--2-2-2-----2-2--2-2-2-2--2-2-2-2-2-2---|
|-----------------------------------------------------------|
|--4FB-2-4-2~~-2-4-4B-2-4-4/5\4-4-2--5-2-4-2--4-2-5-4-2-4---|
|-----------------------------------------------------------|
|-----------------------------------------------------------|
|-----------------------------------------------------------|

|--2-2-2-2-2-2-2--2-2-2-------7----5---4----2----7----5-----|
|-----------------------------------------------------------|
|--2-5-4-2---2—4B-2-4-2----/7--/6---/4---/2---/7---/6-------|
|----------4------------------------------------------------|
|-----------------------------------------------------------|
|-----------------------------------------------------------|

|-----4----2-----*5--2-----------------2-------2------------|
|---------------------5-2------------2---5-2----------------|
|--/4---/2----------------4-2---2-4FB--------4---4FB4p2-----|
|-----------------------------4-----------------------------|
|-----------------------------------------------------------|
|-----------------------------------------------------------|
*Stop finger style
|-----------------------------------------------------------|
|-----------5FB~~---5FB5p2—-5FB5p2-5FB5p2-5FBp2-5-2h5p2-----|
|--4---2----------------------------------------------------|
|----4------------------------------------------------------|
|-----------------------------------------------------------|
|-----------------------------------------------------------|

|----------------------------------5------------------------|
|----2h5p2---2h5p2---2h5p2---/2------5/7~~-7-9-10/12~~------|
|--4-------4-------4-------4----/6--------------------------|
|-----------------------------------------------------------|
|-----------------------------------------------------------|
|-----------------------------------------------------------|

|-----------------------------------------------------------|
|--/12-10-9-\7~~----------14~~-14~~-14~~----14~~/-----------|
|-------------------------14~~-14~~-14~~----14~~/-----------|
|------------------7-/-14-14~~-14~~-14~~-14-----------------|
|-----------------------------------------------------------|
|-----------------------------------------------------------|

|-----------------------------------------------------------|
|--17FB-17FB~~-17FB17-17-14---------------------------------|
|---------------------------16FB16p14-16p14----14----14-----|
|-------------------------------------------16----16--------|
|-----------------------------------------------------------|
|-----------------------------------------------------------|

|-----17----------------------------------------------------|
|-----------------------------------------------------------|
|--16FB-16-14-16-14h16p14----14------14----14----14---------|
|-------------------------16----14h16—14h16—14h16—14h16-----|
|-----------------------------------------------------------|
|-----------------------------------------------------------|

|-----------------------------------------------------------|
|-------------------------16FB16p14-16----------------------|
|-------14----14----14----16FB16p14-16-14h16p14----14-------|
|--14h16—14h16—14h16----------------------------16----------|
|-----------------------------------------------------------|
|-----------------------------------------------------------|

|--/17~17~17~17-17-19FB---19FB-19FB-19FB-19FB-19FB-19FB-----|
|-----------------------------------------------------------|
|-----------------------------------------------------------|
|-----------------------------------------------------------|
|-----------------------------------------------------------|
|-----------------------------------------------------------|

|--19FB19-17-19-19FB19p17-----------------------------------|
|-------------------------19-19~~-19FB19p17-19-19~~---------|
|-----------------------------------------------------------|
|-----------------------------------------------------------|
|-----------------------------------------------------------|
|-----------------------------------------------------------|

|-----------------------------------------------------------|
|--0---------14~~---0-14-15-14------------------------------|
|--0---------14~~---0---------14----------------------------|
|--0---------14~~---0-----------14-12-11h12p11-9-8----------|
|----12-/-16------------------------------------------------|
|-----------------------------------------------------------|

|-----------------------------------------------------------|
|--------------------4FB4---------4FB4------------5-7-7~~---|
|----------------2-4-4FB4-2---2-4-4FB4-2---2—-2/6-----------|
|------------2-4------------4------------4------------------|
|------0-2/4------------------------------------------------|
|--0-2------------------------------------------------------|

|---------5/7~~-5--/10-9----9/10/12-12/15\14~~14~~-----14---|
|--\5---7----------------10------------------------17FB-----|
|-----------------------------------------------------------|
|-----------------------------------------------------------|
|-----------------------------------------------------------|
|-----------------------------------------------------------|

|------14----14----14----14---------------------------------|
|--17FB—-17FB--17FB--17FB--17FB-17-14----14-----------------|
|-------------------------------------16----16FB16p14-------|
|------------------------------------------------------16---|
|-----------------------------------------------------------|
|-----------------------------------------------------------|

|--------------(17)-----------------------------------------|
|---------------17------------16FB16p14-16------------------|
|--16----14-16FB--16-14-16p14-16FB16p14-16-14h16p14---------|
|-----16--------------------------------------------16------|
|-----------------------------------------------------------|
|-----------------------------------------------------------|

|-----------------------------------------------------------|
|-----------------------16FB16-14-/-------------------------|
|--14~~--------------14-16FB16-14-/-------------------------|
|--------------14h16----------------------------------------|
|--------14h16----------------------------------------------|
|-----------------------------------------------------------|


Bridge III :


|-------------------------LR--------------------------------|
|-------------------2h3.--2---------------------------------|
|------2-2-2-2-2-2--2-----2-----7-7-7-7-/-9-9-9-9-/---------|
|------2-2-2-2-2-2—-2h4.--2-----x-x-x-x---x-x-x-x-----------|
|------0-0-0-0-0-0--0-----0-----5-5-5-5-/-7-7-7-7-/---------|
|--(0)------------------------------------------------------|

|-----------------------------------------------------------|
|-----------------------------------------------------------|
|--11-11-11-11-/-13-13-13-\-9-9--9-9-9-9-/-11-11-11-11-/----|
|---x--x--x--x----x--x--x---x-x--x-x-x-x----x--x--x--x------|
|---9--9--9--9-/-11-11-11-\-7-7--7-7-7-7-/--9--9--9--9-/----|
|-----------------------------------------------------------|

|-----------------------------------------------------------|
|------------------------------2---2---2----------2---2-----|
|--13-13-13-13—-14/--------2---2h4-2h4-2h4p2---2--2h4-2-----|
|---x--x--x--x---------2/4---4---------------4--------------|
|--11-11-11-11—-12/-----------------------------------------|
|-----------------------------------------------------------|

|-----------5-------LR-----5/-L-----------------------------|
|-------------5-----5------5/--E----------------------------|
|-------/6------6-6h7------6/---T-R-------------------------|
|--4/---/7-----------------7/------I------------------------|
|-----------------------------------N-----------------------|
|--------------------------5/--------G----------------------|


Theme IV :


|--5-7-5-------2|LR-----------------------------------------|
|--5-7-5-------2|---------LR—-3p2---L---R-------------------|
|--------------2|---------2------2---E---I------------------|
|--------------4|---------2-------2---T---N-----------------|
|---------------V---------0----------------G----------------|
|---------0-2-------0-2-0-----------------------------------|

|--5-7-5-------2|LR-----------------------------------------|
|--5-7-5-------2|---------LR—-3p2---L---R-------------------|
|--------------2|---------2------2---E---I------------------|
|--------------4|---------2-------2---T---N-----------------|
|---------------V---------0----------------G----------------|
|---------0-2-------0-2-0-----------------------------------|

|--5-7-5-------2|LR-----------------------------------------|
|--5-7-5-------2|---------LR—-3p2---L---R-------------------|
|--------------2|---------2------2---E---I------------------|
|--------------4|---------2-------2---T---N-----------------|
|---------------V---------0----------------G----------------|
|---------0-2-------0-2-0-----------------------------------|

|--5-7-5-------2|LR-----------------------------------------|
|--5-7-5-------2|---------LR—-3p2---L---R-------------------|
|--------------2|---------2------2---E---I------------------|
|--------------4|---------2-------2---T---N-----------------|
|---------------V---------0----------------G----------------|
|---------0-2-------0-2-0-----------------------------------|

|-----------------------------------------------------------|
|---LR------------------------------------------------------|
|---2---2-2/-------------DRUMS------------------------------|
|---2---2-2/------------------------------------------------|
|--/4---2-4/------------------------------------------------|
|-----------------------------------------------------------|

|-----------------------------------------------------------|
|----------------17FB-17FB~~-17FB-17FB-17FB-17FB17p14-17----|
|-----------------------------------------------------------|
|--*X-/-----------------------------------------------------|
|---X-/-----------------------------------------------------|
|---X-/-----------------------------------------------------|
*Noise with pick on the strings

|-----------------------------------------------------------|
|--14-14h17p14---14h17p14—14h17p14—14h17p14—14h17p14--------|
|--------------16--------16-------16-------16-------16------|
|-----------------------------------------------------------|
|-----------------------------------------------------------|
|-----------------------------------------------------------|

|-----------------------------------------------------------|
|--14h17p14—14h17p14—14h17p14—14h17p14—14h17p14—14h17p14----|
|---------16--------16-------16-------16-------16-----------|
|-----------------------------------------------------------|
|-----------------------------------------------------------|
|-----------------------------------------------------------|

|-----------------------------------------------------------|
|----14h17p14---17p14----14-17—-19p17---19p17-----19p17-----|
|--16-------16--------16------------18p16----18p16----------|
|-----------------------------------------------------------|
|-----------------------------------------------------------|
|-----------------------------------------------------------|

|---------------------------------------17FB----17FB--------|
|-------19p17-----19p17-----19p17---------------------------|
|--18p16-----18p16-----18p16-----18p16----------------------|
|-----------------------------------------------------------|
|-----------------------------------------------------------|
|-----------------------------------------------------------|

|--17FB~~-17FB~17FB~17FB~-----------------------------------|
|-----------------------------------------------------------|
|-------------------------FADE OUT--------------------------|
|-----------------------------------------------------------|
|-----------------------------------------------------------|
|-----------------------------------------------------------|








Guide to tablature

b:1/4 bend
B:1/2 bend
FB:full bend
17FB17:full bend and release
h:hammer on
p:pull off
/:slide  
~:vibrato
PM:Palm Muted
.:dotted note
LR:Let Ring
Tremolo:indicates fast up and down strumming







---------------------------------------------


 
Popa Chubby - San Catri  as heard on « Gas Money » (1993)

Transcription: Frédéric Winne 
for Sam’s Popa Chubby Site http://www.popachubby.net


 
e-mail: choko_tof@yahoo.fr – fwinne@msn.com

Comments