Merle Haggard - Kern River Chords & Tabs

 

Kern River Chords & Tabs

Merle Haggard Chords & Tabs

Version: 1 Type: Tab 0 ratings
1 star 2 stars 3 stars 4 stars 5 stars
comments

Kern River Tab

   
-------------------------------------------------------------------------------
			     kern river-
-------------------------------------------------------------------------------
Tabbed by: nick italian stallion
Email:xhiloverx@aol.com

Tuning:standard

e|------- --------------------------------------------------------------------|
B|---5/10----10-10---10----9----7------9----9--9----9-------7-----5-----7-----|
G|----------------------------------------------------------------------------|
D|----------------------------------------------------------------------------|
A|----------------------------------------------------------------------------|
E|----------------------------------------------------------------------------|

e|------------------------------------------------------[-10-]---------------|
B|------------------7---------7----------10--7---10--------------------------|
G|-------------7--------------7----------------------------------------------|
D|-------7--------------------7----------------------------------------------|
A|---------------------------------------------------------------------------|
E|---------------------------------------------------------------------------|
[ Tab from: http://www.guitartabs.cc/tabs/m/merle_haggard/kern_river_tab.html ]
e|-----------------------------------------------------------------------------|
B|----5----5------5---7-----5--------------------------------------------------|
G|-----------------------------6-----4---4-----6/7----6-----4-----2------2-----|
D|-----------------------------------------------------------------------------|
A|-----------------------------------------------------------------------------|
E|-----------------------------------------------------------------------------|

e|--------------5------5/7/5---------------------------------------------------|
B|--2------5-------------------------------------------------------------------|
G|-----------------------------------------------------------------------------|
D|-----------------------------------------------------------------------------|
A|-----------------------------------------------------------------------------|
E|-----------------------------------------------------------------------------|

ps this is just the solo in the middle of the song and at the end u can find chords for 
song on here already so im not bothering with all that anyways GERMANS ARE HORNY!!!

  [  bend
| /  slide up
| \  slide down
| h  hammer-on
| p  pull-off
| ~  vibrato
| +  harmonic
| x  Mute note
===================================================================
Comments