Christian Bautista - Hands To Heaven Chords & Tabs

 

Hands To Heaven Chords & Tabs

Christian Bautista Chords & Tabs

Version: 2 Type: Tab 0 ratings
1 star 2 stars 3 stars 4 stars 5 stars
comments

Hands To Heaven Tab

   
Hands to heaven
 pagtiyagaan nyo n lng 2 mna....saka n ung iba ok?

Chords used:

        B                 Gm7                 Bbm              F

Intro:

e|----------0--2-- 3-----2-3-5-2-3-10----5--2-3---10----12---------------|
B|--3-----3---------3---3---------------3---------3----------------------|
G|--2------------- 4--0--------------------------------------------------|
D|-----------------4----------------------5------------------------------|
A|------------------5-------5-----------------------------------0--------|
E|------------------3-----------------0----------------------------------|

Note: Apply here plucking but in chorus, maybe both plucking and strumming

Verse 1:

B                                 Gm7
As I watch you move, across the moonlit room,

Bbm                                F
There's so much tenderness in your loving.

B                                   Gm7
Tomorrow I must leave, the dawn knows no reprieve.

Bbm                             F
God give me strength when I am leaving,

[ Tab from: http://www.guitartabs.cc/tabs/c/christian_bautista/hands_to_heaven_tab_ver_2.html ]
              D                   Gm7
So raise your hands to heaven, and pray

              Em                G
That we'll be back together someday, hey!


Chorus:
   D
To-night I need your sweet caress

       Gm7
       (Hold me in the darkness.)

   Em
To-night you calm my restlessness

       G
      (You relieve my sadness.)
SOLO:

-----------4--4---4---222------2-44--5-5-6-7--22----------|
3----4------5-----------5---------------------------------|
4------------------/3-------~-----------------------------|
----------------------------------------------------------|
0--------------0------------------------------------------|
----------------------------------------------------------|


Verse 2:

As we move to embrace, tears roll down your face,
I whisper words of love so softly.
I can't believe this pain, it's driving me insane,
Without your touch life will be lonely.

So raise your hands to heaven and say
that we'll be back together someday, hey!

(Chorus: 2x)


Verse 3:
D
Morning has come another day,

Gm7
I must pack my bags and say,

Em          G
"Goodbye, Goodbye!"

(Repeat chorus until fade)
Comments