Christian Bautista - Hands To Heaven Chords & Tabs


Hands To Heaven Chords & Tabs

Christian Bautista Chords & Tabs

Version: 1 Type: Tab 0 ratings
1 star 2 stars 3 stars 4 stars 5 stars

Hands To Heaven Tab

Hands to heaven
Christian Bautista
Tab by: Walter Michael De la Cruz - Baguio City - 

This is a very sad song. Pero i like it since it is oldies. Kantahin nyo 2 pag
iiwan nyo na ung minamhal nyo (gaya ko).hehehe
Pero just try to tab it. Try nyo kung pasado. Kasi it is played in piano. ginawan
ko lang ng acoustic para masaya..i think this is correct. 

Chords used:

        D                 GM7                 Em              G
  |-----3-----|        |----3-----|       |----0----|     |----3----|
  |-----2-----|        |----3-----|       |----0----|     |----3----|
  |-----3-----|        |----4-----|       |----0----|     |----0----|
  |-----0-----|        |----4-----|       |----2----|     |----0----|
  |-----------|        |----5-----|       |----2----|     |----2----|
  |-----------|        |----3-----|       |----0----|     |----3----|


e|--2--------0--2-- 3-----2-3-5-2-3-10----5--2-3---10---------------|
G|--2---2---------- 4--0---------------------------------------------|

Note: Apply here plucking but in chorus, maybe both plucking and strumming
[ Tab from: ]
Verse 1:

D                                 GM7 
As I watch you move, across the moonlit room, 

Em                                G
There's so much tenderness in your loving. 

D                                    GM7
Tomorrow I must leave, the dawn knows no reprieve.

Em                             G
God give me strength when I am leaving, 

              D                   GM7
So raise your hands to heaven, and pray

              Em                G
That we'll be back together someday, hey!  

To-night I need your sweet caress 
       (Hold me in the darkness.)
To-night you calm my restlessness 
      (You relieve my sadness.)

Verse 2:
As we move to embrace, tears roll down your face,
I whisper words of love so softly. 
I can't believe this pain, it's driving me insane,
Without your touch life will be lonely.

So raise your hands to heaven and say
that we'll be back together someday, hey!

(Chorus: 2x)

Verse 3:
Morning has come another day,

I must pack my bags and say, 

Em          G
"Goodbye, Goodbye!" 

(Repeat chorus until fade)

Comments,questions,?? send me a message in friendster at