Zz Top - Lowrider Chords & Tabs

 

Lowrider Chords & Tabs

Zz Top Chords & Tabs

Version: 2 Type: Bass Tab

Lowrider Bass Tab

Main Part
G------------------------------------------------------------------------------|
D---------------3-----35------------------------------------------------------|
A------1-3-4-5-----5-----------------------------------------------------------|
E---3--------------------------------------------------------------------------|
[ Tab from: https://www.guitartabs.cc/tabs/z/zz_top/lowrider_btab_ver_2.html ]
This is actually play on the trumpet in the real song, but it sounds like this on the bass
Riff
G---16-16-16-16-16-17-19------16-17-16--------------------------------------------|
D--------------------------17---------17-------15-15-15-15-15-15-15-15-15-15-17--|
A---------------------------------------------------------------------------------|
E---------------------------------------------------------------------------------|