Zox - Thirsty Chords & Tabs

 

Thirsty Chords & Tabs

Zox Chords & Tabs

Version: 1 Type: Tab

Thirsty Tab

   
Thirsty

By the Zox
Album: The Wait


This song is pretty sweet
I canít quite figure out the intro
This is close but definitely not completely right


Key of Em

e=e minor
[ Tab from: https://www.guitartabs.cc/tabs/z/zox/thirsty_tab.html ]
    Em   C D e D  C   B     Em   C D e D  C   B 
e|-------------------------------------------------------|
B|--8-8--5-7-8-7--5-5-4-----8-8--5-7-8-7----7---6--------|
G|--9-9--5-7-9-7--5-5-4-----9-9--5-7-9-7---8-8-7-7-------|
D|--9-9--5-7-9-7--5-5-4-----9-9--5-7-9-7--9---8----------|
A|-------------------------------------------------------|
E|-------------------------------------------------------|

e|-------------------------------------------------------|
B|--8-8--5-7-8-7--7-7-6-----8-8--5-7-8-7----7---6--------|
G|--9-9--5-7-9-7--8-8-7-----9-9--5-7-9-7---8-8-7-7-------|
D|--9-9--5-7-9-7--9-9-8-----9-9--5-7-9-7--9---8----------|
A|-------------------------------------------------------|
E|-------------------------------------------------------|

Please help me make corrections

Adam B.
Questions to Atwbthe3rd@yahoo.com