Zeljko Joksimovic - Lane Moje Chords & Tabs

 

Lane Moje Chords & Tabs

Zeljko Joksimovic Chords & Tabs

Version: 1 Type: Tab

Lane Moje Tab

   
                    Lane Moje
----------------------------------------------------------|
-9-10-9h10p9-7----7-9 10p9p7h910p9p7h9--9-10-9h10p9-7----|
----------------9-----------------------------------------|
----------------------------------------------------------|
----------------------------------------------------------|
----------------------------------------------------------|
     tr            tr
----------------------------------------------------------|
-9--------------------------------------------------------|
---9p8---------8-8-8-----------8s9-9h11 h12p11p9-h12p11p9-|
---------11-9----------11-9h11----------------------------|
----------------------------------------------------------|
----------------------------------------------------------|
                tr
-------------------------|
-7h8p7----7-9------------|
-------9------9-8--------| (sviraj dva puta)
------------------11-11--| (play twice)
-------------------------|
-------------------------|
Abm
Kad  na  te  pomislim
           Gbm           Dbm
bojim  se  da  te  opet  zavolim
Abm             F#m
u  modre  usne  zarijem  zube
           Dbm
da  pravu  bol  zaboravim

Dbm
Lane  moje  ovih  dana
                   Abm
vise  i  ne  tugu  jem
                         Gbm
pitam  samo  da  l'  si  sama
                     Dbm
ljude  koje  ne  cu  jem
[ Tab from: https://www.guitartabs.cc/tabs/z/zeljko_joksimovic/lane_moje_tab.html ]
lane  moje  nocas  kreni
                      Abm
nije  vazno  bilo  s  kim
                     Gbm
nadji  nekog  nalik  meni
        Ab7           Dbm
da  te  barem  ne  vo lim

(violin)
-7-9-7------------7-9-7-----------   -7-7-7-7-------------|
--------10p9p7-9---------10p9p7-9-   ----------10p9p7-----|
----------------------------------   ---------------------|
----------------------------------   ---------------------|
----------------------------------   ---------------------|
----------------------------------   ---------------------|


----------------------------------   ---------------|
-7-7-7-7------------------7-------   --------7-9-10-|
----------9p8p6-6-6-6-8-9---8-6-6-   ---89---------|
----------------------------------   ---------------|
----------------------------------   ---------------|
----------------------------------   ---------------|
(Sviraj jos jednom od prekida do prekida. Drugi put se pjeva)
(Repeat from space to space. Second time there is singing)

(nek' neko drugi kose ti ljubi, da tebe lakse prebolim)


Ebm
lane  moje  ovih  dana  (lane  moje)
                  Bbm
vise  i  ne  tugu jem  (lane  moje)
                         Abm
pitam  samo  da  l'  si  sama
                    Ebm
ljude  koje  ne  cu jem

lane  moje  nocas  kreni  (lane  moje)
                      Bbm
nije  vazno  bilo  s  kim
                     Abm
nadji  nekog  nalik  meni
        Bb7           Ebm
da  te  barem  ne  vo lim
        Bb7          Ebm
da  te  vise  ne  vo lim