Yui - Rolling Star Chords & Tabs

 

Rolling Star Chords & Tabs

Yui Chords & Tabs

Version: 3 Type: Tab

Rolling Star Tab

e|------------0----0-------------0----0-----------0----0---------5----5------------|
B|----------3----3-------------3----3-----------3----3--------3----3---------------|
G|----4-4--------------2--2--------------0--0-------------2-----------------------|
D|---------------------------------------------------------------------------------| 
A|---------------------------------------------------------------------------------|
E|---------------------------------------------------------------------------------|

e|------------0----0-------------0----0-----------0----0---------5----|
B|----------3----3-------------3----3-----------3----3--------3----3--|
G|----4-4--------------2--2--------------0--0-------------2----------|  D (strum)
D|--------------------------------------------------------------------| 
A|--------------------------------------------------------------------|
E|--------------------------------------------------------------------|

[ Tab from: https://www.guitartabs.cc/tabs/y/yui/rolling_star_tab_ver_3.html ]