Young Knives - Another Hollow Line Chords & Tabs

 

Another Hollow Line Chords & Tabs

Young Knives Chords & Tabs

Version: 1 Type: Tab

Another Hollow Line Tab

   
YOUNG KNIVES-ANOTHER HOLLOW LINE				Tabbed by Jeff

~Intro~

E|---------------------------------------------------------------------------|
B|---------------------------------------------------------------------------|
G|-----------------3---------------------------------------------------------|
D|-3-3-3-3-3-0-0-0--2-2-2-2-0-0-0--------------------------------------------|
A|-----------------------------------------------------------------------x2--|
E|---------------------------------------------------------------------------|

~Verse~
  F	    Bb   F         Bb

E|----------1-1------------1-1-----------------------------------------------|
B|----------3-3------------3-3-----------------------------------------------|
G|----------3-3------------3-3-----------------------------------------------|
D|-3/5-3/7--3-3---3/5-3/7--3-3-------------------x5--------------------------|
A|----------1-1------------1-1-----------------------------------------------|
E|---------------------------------------------------------------------------|
				
~chorus~

E|----------------11---------------11--------------11----1-----3-------------|
B|----6---6---6---33-----6--6--6---33-----6--6--6--33----3-----3-------------|
G|-----5---5------33------5--5-----33------5--5----33----3-----3-------------|
D|------3---3--3--33-------3--3-3--33-------3--3-3-33----3-----5-------------|
A|----------------11---------------11--------------11----1-----5-------------|
E|-------------------------------------------------------------3-------------|


Verse~
  F	    Bb   F         Bb

E|----------1-1------------1-1-----------------------------------------------|
B|----------3-3------------3-3-----------------------------------------------|
G|----------3-3------------3-3-----------------------------------------------|
D|-3/5-3/7--3-3---3/5-3/7--3-3-------------------x4--------------------------|
A|----------1-1------------1-1-----------------------------------------------|
E|---------------------------------------------------------------------------|








E|--8--7--5---8--7--6--------------------------------------------------------|
B|--10-9--7---10-9--6--------------------------------------------------------|
G|--10-9--7---10-9--7--------------------------------------------------------|
D|--10-9--7---10-9--8--------------------------------------------------------|
A|--8--7--5---8--7--8----------------------------------------------------x2--|
E|------------------6--------------------------------------------------------|

~chorus~

E|----------------11---------------11--------------11----1-----3-------------|
B|----6---6---6---33-----6--6--6---33-----6--6--6--33----3-----3-------------|
G|-----5---5------33------5--5-----33------5--5----33----3-----3-------------|
D|------3---3--3--33-------3--3-3--33-------3--3-3-33----3-----5-------------|
A|----------------11---------------11--------------11----1-----5-------------|
E|-------------------------------------------------------------3-------------|



~fill~
[ Tab from: https://www.guitartabs.cc/tabs/y/young_knives/another_hollow_line_tab.html ]
E|----------------------------|-------00000000555555550000000066666666-x2----|
B|----------------------------|----------------------------------------------|
G|---------3------------3/5-3-|----------------------------------------------|
D|-33333000-----00000---------|x1--------------------------------------------|
A|-------------------333------|----------------------------------------------|
E|----------------------------|----------------------------------------------|

Verse~
  F	    Bb   F         Bb

E|----------1-1------------1-1-----------------------------------------------|
B|----------3-3------------3-3-----------------------------------------------|
G|----------3-3------------3-3-----------------------------------------------|
D|-3/5-3/7--3-3---3/5-3/7--3-3-------------------x4--------------------------|
A|----------1-1------------1-1-----------------------------------------------|
E|---------------------------------------------------------------------------|











E|--8--7--5---8--7--6--------------------------------------------------------|
B|--10-9--7---10-9--6--------------------------------------------------------|
G|--10-9--7---10-9--7--------------------------------------------------------|
D|--10-9--7---10-9--8--------------------------------------------------------|
A|--8--7--5---8--7--8--------------------------------------------------------|
E|------------------6--------------------------------------------------------|


~chorus~

E|----------------11---------------11--------------11--------------11--------|
B|----6---6---6---33-----6--6--6---33-----6--6--6--33-----6--6--6--33--------|
G|-----5---5------33------5--5-----33------5--5----33------5--5----33--------|
D|------3---3--3--33-------3--3-3--33-------3--3-3-33-------3--3-3-33--------|
A|----------------11---------------11--------------11--------------11--------|
E|---------------------------------------------------------------------------|


~chorus~

E|----------------11---------------11--------------11----1-----3---1---------|
B|----6---6---6---33-----6--6--6---33-----6--6--6--33----3-----3---1---------|
G|-----5---5------33------5--5-----33------5--5----33----3-----3---2---------|
D|------3---3--3--33-------3--3-3--33-------3--3-3-33----3-----5---3---------|
A|----------------11---------------11--------------11----1-----5---3---------|
E|-------------------------------------------------------------3---1---------|

LYRICS
A lonely smile in the clouds
And the smell of foreign bodies
He waits for you to ask him out
Three hours sitting in the lobby
Itís another Hollow line
From a wooden body
And you know you love him
Because you know he loves you

Hollow line
Waste of time
Hollow line
Just another Hollow Line

I heard you are getting into Zen
And youíve got a Buddhist friend
I didnít think you had the patience
I guess youíve proved me wrong again

Who are you?
Who are you?

Hollow line
Waste of time
Hollow line
Just another hollow line

One day youíre sitting very still
And repeating a faburden
The next youíre wearing Faberge
On your way to Covent garden

Who are you?
Who are you?

Hollow line
Waste of time
Hollow line
Waste of time
Hollow line
Waste of time
Hollow line
Just another hollow line



I know itís not 100% correct but it works if you play along with the song