Yeng Constantino - Hawak Kamay Chords & Tabs

 

Hawak Kamay Chords & Tabs

Yeng Constantino Chords & Tabs

Version: 1 Type: Tab

Hawak Kamay Tab

   
Kapain niyo nalang yung plucking ng buong kanta... First tab ko to, hope you like it...

Intro:
      G        Em        C9         D
e|-------3-|-------3-|--2-3-0--|-------3-|
B|-------3-|-------3-|--3-3-3--|---3-----|
G|---------|---------|---------|---------|
D|-----0---|-----2---|---------|-0---0---|
A|---2-----|---2-----|--3-33--|---------|
E|-3-------|-0-------|---------|---------|

      G        Em        C9         D
e|-------3-|-------3-|--2-3-0--|----5----|
B|-------3-|-------3-|--3-3-3--|----3----|
G|---------|---------|---------|----2----|
D|-----0---|-----2---|---------|----0----|
A|---2-----|---2-----|--3-33--|---------|
E|-3-------|-0-------|---------|---------|

Verse:
[ Tab from: https://www.guitartabs.cc/tabs/y/yeng_constantino/hawak_kamay_tab.html ]
G          Em          C        D
Minsan madarama mo kay bigat ng problema
G          Em               C
Minsan nahihirapan ka at masasabing
  D
"di ko na kaya"
 Am                  Bm
Tumingin ka lang sa langit
  C            D
Baka sakaling may masumpungan
 Am            Bm
Di kaya ako'y tawagin
  C             D
Malalaman mong kahit kailan

Chorus:

      G
Hawak-kamay
     Em             C9
Di kita iiwan sa paglakbay
  D
Dito sa mundong walang katiyakan
      G
Hawak-kamay
     Em             C9
Di kita iiwan sa paglalakbay
  D
Sa mundo ng kawalan

Verse: G-Em-C9-D

Minsan madarama mo
Ang mundo'y gumuho sa ilalim ng iyong mga paa
At ang agos ng problema'y tinatangay ka
Tumingin ka lang sa langit
Baka sakaling may masumpangan
Di kaya ako'y tawagin
Malalaman mong kahit kailan
(Chorus)

Bridge: Em-G-C9-D

Wag mong sabihin nagiisa ka
Laging isipin meron kang kasama
Narito ako oh,Narito ako...

(Chorus)

Sa mundo ng kawalan
Hawak-kamay,hawak-kamay
Sa mundo ng kawalan