Yellowcard - Grey Chords & Tabs

 

Grey Chords & Tabs

Yellowcard Chords & Tabs

Version: 1 Type: Bass Tab

Grey Bass Tab

Title: Grey
Artist: Yellowcard
Album: Lights and Sounds
Bassist: Pete Mowsley
Tabbed by: Pete Boyle
Standard Tuning

Intro 0:02

G|-------------------------------| X2
D|-------------------------------|
A|-----555555555555--------------|
E|------------------666666666666-|

Verse 2
G|-------------| 
D|-------------|
A|--5~------5~-|
E|------6~-----|

Pre Chorus			   
G|------------------------------------------------------------------------|
D|-------------------------------------------------------------------------|
A|-----888888888888--777777777777------------------------------------------|
E|--------------------------------333333333333-666666666666--6--6--6--6-66-|

Chorus
G|-----------------------------| X2
D|-----------------------------|
A|-----555555555555------------|
E|-----------------66666666666-|

Verse 1
G|---------------| 
D|---------------|
A|--5~------5~---|
E|------6~-----6~|

Pre Chorus
G|------------------------------------------------------------------------| 
D|-------------------------------------------------------------------------|
A|-----888888888888--777777777777------------------------------------------|
E|--------------------------------333333333333-666666666666--6--6--6--6-66-|

Bridge
Given one more try, I donít know if I would stay...
G|-----------------------------------------------------------------------|
D|-----------------------------------------------------------------------| 
A|--------------------3333333333333333-5555555555555555------------------|
E|-----333333333333333----------------------------------6666666666666666-|
[ Tab from: https://www.guitartabs.cc/tabs/y/yellowcard/grey_btab.html ]
G|-----------------------------------------------------------------|
D|-----------------------------------------------------------------| 
A|--------------------3333333333333333--5--5--5--5-55--------------|
E|-----333333333333333---------------------------------6--6--6--66-|

Post-Bridge
I know every last regret inside of me is my own...
G|----------------------| x1
D|---~------------------|
A|---5~----3~-----------|
E|--------------3~---6~-|

Pre Chorus
G|-------------------------------------------------------------------------|
D|-------------------------------------------------------------------------|
A|-----888888888888--777777777777------------------------------------------|
E|--------------------------------333333333333-666666666666--6--6--6--6-66-|

Bridge
Given one more try, I donít know if I would stay...
G|-----------------------------------------------------------------------|
D|-----------------------------------------------------------------------| 
A|--------------------3333333333333333-5555555555555555------------------|
E|-----333333333333333----------------------------------6666666666666666-|

G|-----------------------------------------------------------------|
D|-----------------------------------------------------------------| 
A|--------------------3333333333333333--5--5--5--5-55--------------|
E|-----333333333333333---------------------------------6--6--6--66-|x2


Last Chorus
Chorus
G|-----------------------------| X5
D|-----------------------------|
A|-----555555555555------------|
E|-----------------66666666666-|

End on
G|------|
D|------|
A|--5~--|
E|------|

There you are enjoy,