Wolfmother - Dimension Chords & Tabs

 

Dimension Chords & Tabs

Wolfmother Chords & Tabs

Version: 3 Type: Bass Tab

Dimension Bass Tab

I copied this from another site and cleaned up the typing a little bit so I could print 
for myself. This is not my work but I find it to be a better version than the ones 
here, so I figured I'd share it. Awesome song. Thanks Bradon from Bassmasta.net

Intro:
G|----------------|-----------------|
D|:---------------|---------------5:|
A|:---------------|--------0h5--7--:| x3
E|--0---0---0---0-|-0---0-----------|

G|----------------|-----------------|
D|----------------|----7-5----------|
A|----------------|--------7-5------|
E|--0---0---0---0-|-0----------7-5ó-|

Verse
G|----------------|-----------------|
D|:---------------|---------------5:|
A|:---------------|--------0h5--7--:| x4
E|--0---0---0---0-|-0---0-----------|

G|----------------|---------------5-|
D|----------------|--------0h5--7---|
A|--0---0---0---0-|-0---0-----------|
E|----------------|-----------------|

G|----------------|-----------------|
D|----------------|----7-5----------|
A|--0---0---0---0-|-0------7-5------|
E|----------------|------------7-5ó-|

G|----------------|-----------------|
D|:---------------|---------------5:|
A|:---------------|--------0h5--7--:| x2
E|--0---0---0---0-|-0---0-----------|

G|----------------|-----------------|----------------|----------------|
D|----------------|-----------------|----------------|----------------|
A|----------------|-----------------|----------------|----------------|
E|--7---7---7---7-|--7---7---7---7--|--5---5---5---5-|-5\-------------|

Chorus
G|---------------7-7-9--7-----------|--------------7-7-9--7-----------|
D|-----5-6-7-8-9----------9-8-7-6-5-|----5-6-7-8-9----------9-8-7-6-5-|
A|5-7-------------------------------|5-7------------------------------|
E|----------------------------------|---------------------------------|

Bridge
G|----------------|-----------------|----------------|-------------|
D|:---------------|-----------------|----------------|-------------|
A|:---------------|-----------------|----------------|-------------|
E|-12-------------|-6-5-------------|-10-12----------|-6-5------10-| x2
Donít play last note second time.

Verse
G|---------------|-----------------|----------------|-----------------|
D|-------------5-|---------------5-|--------------5-|----7-5----------|
A|---7---0-5h7---|----7---0-5h7----|----7---0-5h7---|--------7-5------|
E|0--------------|-0---------------|-0--------------|-0----------7-5ó-|


 Verse
G|----------------|-----------------|
D|:---------------|---------------5:|
A|:---------------|--------0h5--7--:| x4
E|--0---0---0---0-|-0---0-----------|

G|----------------|---------------5-|
D|----------------|--------0h5--7---|
A|--0---0---0---0-|-0---0-----------|
E|----------------|-----------------|

G|----------------|-----------------|
D|----------------|----7-5----------|
A|--0---0---0---0-|-0------7-5------|
E|----------------|------------7-5ó-|

G|----------------|-----------------|
D|:---------------|---------------5:|
A|:---------------|--------0h5--7--:| x2
E|--0---0---0---0-|-0---0-----------|
[ Tab from: https://www.guitartabs.cc/tabs/w/wolfmother/dimension_btab_ver_3.html ]
G|---------------|-----------------|----------------|-----------------|
D|---------------|-----------------|----------------|-----------------|
A|---------------|-----------------|----------------|-----------------|
E|-7---7---7---7-|--7---7---7---7--|--5---5---5---5-|-5\--------------|

Chorus
G|----------------7-7-9--7--------------------------------------------|
D|------5-6-7-8-9----------9-8-7-6-5----------------------------------|
A|-5-7----------------------------------------------------------------|
E|--------------------------------------------------------------------|

G|----------------------------12---12-14-12---------------------------|
D|-------------10-11-12-13-14-------------- 14-13-12-11-10------------|
A|----10-12----------------------------------------------------12-10--|
E|--------------------------------------------------------------------|

Bridge
G|----------------|-----------------|----------------|-------------|
D|:---------------|-----------------|----------------|-------------|
A|:---------------|-----------------|----------------|-------------|
E|-10-12----------|-6-5----------10-|-12-------------|-6-5------10-| x2
Donít play last note second time.

G|----------------|----------------|----------------|--------------|
D|----------------|----------------|----------------|--------------|
A|-10--10--10--10-|-10--10--10--10-|-12--12--12--12-|-12~~~--------|
E|----------------|----------------|----------------|--------------|


Verse
G|--------------|-----------------|----------------|----------------|
D|:-----------5-|---------------5-|--------------5-|--------------5-|
A|:--7--0-5h7---|----7---0-5h7----|----7---0-5h7---|----7---0-5h7---|
E|-0--------------|-0---------------|-0--------------|-0------------|x3


G|----------------|-----------------|
D|----------------|---------------5-|
A|----------------|--------0h5--7---|
E|--0---0---0---0-|-0---0-----------|

G|----------------|-----------------|
D|----------------|----7-5----------|
A|----------------|--------7-5------|
E|--0---0---0---0-|-0----------7-5ó-|

G|----------------|-----------------|----------------|----------------|
D|--------------5-|---------------5-|--------------5-|--------------5-|
A|----7---0-5h7---|----7---0-5h7----|----7---0-5h7---|----7---0-5h7---|
E|-0--------------|-0---------------|-0--------------|-0--------------|

G|---------------|-----------------|----------------|-----------------|
D|---------------|-----------------|----------------|-----------------|
A|---------------|-----------------|----------------|-----------------|
E|-7---7---7---7-|--7---7---7---7--|--5---5---5---5-|-5\--------------|

Chorus
G|----------------7-7-9--7--------------------------------------------|
D|------5-6-7-8-9----------9-8-7-6-5----------------------------------|
A|-5-7----------------------------------------------------------------|
E|--------------------------------------------------------------------|

G|----------------------------12---12-14-12---------------------------|
D|-------------10-11-12-13-14-------------- 14-13-12-11-10------------|
A|----10-12----------------------------------------------------12-10--|
E|--------------------------------------------------------------------|

Outro
G|----------------|-----------------|
D|:---------------|---------------5:|
A|:---------------|--------0h5--7--:| x4
E|--0---0---0---0-|-0---0-----------|

G|------------------|
D|------------------|
A|------------------|
E|-0----------------|