Wolfmother - Colossol Chords & Tabs

 

Colossol Chords & Tabs

Wolfmother Chords & Tabs

Version: 1 Type: Bass Tab

Colossol Bass Tab

   
-------------------------------------------------------------------------------
			     Colossol - Wolfmother
-------------------------------------------------------------------------------

Tabbed By: Tails_STP
E-mail: offroad_idiot@hotmail.com
First tab so yea may be a lil off . I havenít worked out all timing so yea listen to 
to work it out

Tuning: Standard

INTRO
G|-----------------------------------------------------------------------------|
D|-----------------------------------------------------------------------------|
A|--5---5----5----5-----5-----5----5-------------------------------------------|
E|-----------------------------------------------------------------------------|

VERSE
G|----------------------------------------------------------------------------------|
D|----------------------------------------------------------------------------------|
A|----55--55----55---553355---------------------------------------------------------|
E|---------------------------------------------------------------------------|  x 4-|

Pre-Chorus
G|-----------------------------------------------------------------------------|
D|-----------------------------------------------------------------------------|
A|----55--55----55---5533------------------------------------------------------|
E|-----------------------------------------------------------------------------|

1st Chorus
G|------------------------------------------------------------------------------------|
D|------------------------------------------------------------------------------------|
A|-------------------33333333--------55---55----55----55--------------------33333333--|
E|----55555555-----------------------------------------------------55555555-----------|

Verse

Pre Chorus
[ Tab from: https://www.guitartabs.cc/tabs/w/wolfmother/colossol_btab.html ]
2nd Chorus
G|---------------------------------------------------------------------------------------|
D|---------------------------------------------------------------------------------------|
A|-------------------33333333------------------------------------------------------------|
E|----55555555---------------------------------------------------------------------------|

1st Bridge (guitar plays this once before bass comes in)
G|-------------------------------------------------------------------------------------|
D|-------------------------------------------------------------------------------------|
A|--5---35-------11-10-------43--------65----------------------------------------------|
E|------------------------------------------------------------------------------|  x 4-|

Verse

Pre- Chorus

1st Chorus

1st Bridge

2nd Bridge (guitar plays this once before bass comes in)
G|---------------------------------------------------------------------------------------------------------|
D|---------------------------------------------------------------------------------------------------------|
A|---3/55-3/55-3/55----777----3/55-3/55-3/55---------------------------------------------------------------|

  x 4--|

3rd Bridge
G|-----------------------------------------------------------------------------------|
D|-----------------------------------------------------------------------------------|
A|---777666555444--------------------------------------------------------------------|
E|---------------------------------------------------------------------------|   x 4-|

Outro
G|----------------------------------------------------------------------------------|
D|----------------------------------------------------------------------------------|
A|-----7-----6------5------4--------------------------------------------------------|
E|---------------------------------------------------------------------------|  x 5-|

| /  slide up
|   slide down
| h  hammer-on
| p  pull-off
| ~  vibrato
| +  harmonic
| x  Mute note
===============================================================================