Wolfmother - Colossal Chords & Tabs

 

Colossal Chords & Tabs

Wolfmother Chords & Tabs

Version: 5 Type: Tab

Colossal Tab

INTRO: (0:00-0:17)

E|----------------------------------------------------|
B|----------------------------------------------------|
G|---7-------5---7-------7---7-------5---7---7p5------|
D|---7---5h7-----7---5h7-----7---5h7-----7-------7----|
A|---5-----------5-----------5-----------5------------|
E|----------------------------------------------------|

E|----------------------------------------------------|
B|---------------------------------------7b-5b--------|
G|---7-------5---7-------7---7-------5---7b-5b--------|
D|---7---5h7-----7---5h7-----7---5h7------------------|
A|---5-----------5-----------5------------------------|
E|----------------------------------------------------|

VERSE: (0:18-0:47)

E|--------------------------------|
B|--------------------------------|
G|---7-7---7-7---7-7---7-7-x5-----|
D|---7-7---7-7---7-7---7-7-x5-----|x5
A|---5-5---5-5---5-5---5-5-x3-----|
E|--------------------------------|

CHORUS: (0:48-0:54)

E|--------------------------------------------|
B|--------------------------------------------|
G|--------------------5-5-5-5-5-5-5-5---------|
D|---7-7-7-7-7-7-7-7--5-5-5-5-5-5-5-5---------|
A|---7-7-7-7-7-7-7-7--3-3-3-3-3-3-3-3---------|
E|---5-5-5-5-5-5-5-5--------------------------|

(0:55-1:00)
E|-------------------------------------------------------|
B|------------------------------------------7b-5b--------|
G|---7-7------5---7-7------7---7-7------5---7b-5b--------|
D|---7-7--5h7-----7-7--5h7-----7-7--5h7------------------|
A|---5-5----------5-5----------5-5-----------------------|
E|-------------------------------------------------------|

(1:01-1:07)
E|--------------------------------------------|
B|--------------------------------------------|
G|--------------------5-5-5-5-5-5-5-5---------|
D|---7-7-7-7-7-7-7-7--5-5-5-5-5-5-5-5---------|
A|---7-7-7-7-7-7-7-7--3-3-3-3-3-3-3-3---------|
E|---5-5-5-5-5-5-5-5--------------------------|

VERSE: (1:08-1:37)

E|--------------------------------|
B|--------------------------------|
G|---7-7---7-7---7-7---7-7-x5-----|
D|---7-7---7-7---7-7---7-7-x5-----|x5
A|---5-5---5-5---5-5---5-5-x3-----|
E|--------------------------------|

CHORUS: (1:38-1:43)

E|--------------------------------------------|
B|--------------------------------------------|
G|--------------------5-5-5-5-5-5-5-5---------|
D|---7-7-7-7-7-7-7-7--5-5-5-5-5-5-5-5---------|
A|---7-7-7-7-7-7-7-7--3-3-3-3-3-3-3-3---------|
E|---5-5-5-5-5-5-5-5--------------------------|

BRIDGE: (1:44-2:13)

E|---------------------------------------|
B|---------------------------------------|
G|---5-7----13-12----6-5----8-7----------|
D|---5-7----13-12----6-5----8-7----------|x5
A|---3-5----11-10----4-3----6-5----------|
E|---------------------------------------|

(2:14-2:19)
E|---------------------------------------|
B|---------------------------------------|
G|-------------------------x5------------| 
D|---7-7---7-7---7-7---7-7-x5------------|
A|---7-7---7-7---7-7---7-7-x3------------|
E|---5-5---5-5---5-5---5-5---------------|

VERSE: (2:15-2:43)
[ Tab from: https://www.guitartabs.cc/tabs/w/wolfmother/colossal_tab_ver_5.html ]
E|--------------------------------|
B|--------------------------------|
G|---7-7---7-7---7-7---7-7-x5-----|
D|---7-7---7-7---7-7---7-7-x5-----|x4
A|---5-5---5-5---5-5---5-5-x3-----|
E|--------------------------------|

CHORUS: (2:44-2:49)

E|--------------------------------------------|
B|--------------------------------------------|
G|--------------------5-5-5-5-5-5-5-5---------|
D|---7-7-7-7-7-7-7-7--5-5-5-5-5-5-5-5---------|
A|---7-7-7-7-7-7-7-7--3-3-3-3-3-3-3-3---------|
E|---5-5-5-5-5-5-5-5--------------------------|

(2:50-2:55)
E|-------------------------------------------------------|
B|------------------------------------------7b-5b--------|
G|---7-7------5---7-7------7---7-7------5---7b-5b--------|
D|---7-7--5h7-----7-7--5h7-----7-7--5h7------------------|
A|---5-5----------5-5----------5-5-----------------------|
E|-------------------------------------------------------|

(2:56-3:02)
E|--------------------------------------------|
B|--------------------------------------------|
G|--------------------5-5-5-5-5-5-5-5---------|
D|---7-7-7-7-7-7-7-7--5-5-5-5-5-5-5-5---------|
A|---7-7-7-7-7-7-7-7--3-3-3-3-3-3-3-3---------|
E|---5-5-5-5-5-5-5-5--------------------------|

(3:03-3:31)
E|---------------------------------------|
B|---------------------------------------|
G|---5-7----13-12----6-5----8-7----------|
D|---5-7----13-12----6-5----8-7----------|x5
A|---3-5----11-10----4-3----6-5----------|
E|---------------------------------------|

SECOND HALF OF THE SONG: (3:32-3:35

E|--------------------------------------------|
B|--------------------------------------------|
G|--------------------------------------------|
D|--------------------------------------------|
A|---3/5-5555-3/5-5555-3/5-5555--7-7-7------|
E|--------------------------------------------|

(3:36-3:39)
E|--------------------------------------------|
B|--------------------------------------------|
G|--------------------------------------------|
D|---------------------------------5-6-7------|
A|---3/5-5555-3/5-5555-3/5-5555--5-6-7------|
E|---------------------------------3-4-5------|

(3:40-4:02)                                 ---
E|--------------------------------------------| |
B|--------------------------------------------| |
G|---5/7-7777-5/7-7777--5/7-7777--9-9-9------| |
D|---5/7-7777-5/7-7777--5/7-7777--9-9-9------| |
A|---3/5-5555-3/5-5555-3/5-5555--7-7-7------| |
E|--------------------------------------------| |
                                                |x3
E|--------------------------------------------| |
B|--------------------------------------------| |
G|---5/7-7777-5/7-7777--5/7-7777-------------| |
D|---5/7-7777-5/7-7777--5/7-7777--5-6-7------| |
A|---3/5-5555-3/5-5555-3/5-5555--5-6-7------| |
E|---------------------------------3-4-5------| |
                                             ---
(4:03-4:18)
E|---------------------------------|
B|---------------------------------|
G|---10-10-10-9-9-9-8-8-8-7--------|
D|---10-10-10-9-9-9-8-8-8-7--------|x4
A|---8--8--8--7-7-7-6-6-6-5--------|
E|---------------------------------|

(4:19-End)
E|---------------------------------|
B|---------------------------------|
G|---10-------9-------8------7-----|
D|---10-------9-------8------7-----|
A|---8--------7-------6------5-----|
E|---------------------------------|