Within Temptation - Deceiver Of Fools Chords & Tabs

 

Deceiver Of Fools Chords & Tabs

Within Temptation Chords & Tabs

Version: 1 Type: Bass Tab

Deceiver Of Fools Bass Tab

INTRO
G|----------------------------------|
D|----------------------------------|
A|--4-4-4-4-------4-4-4-4----------|
E|------------0--2------------2--4--|

G|---------------------------------------------------------|
D|---------------------------------------------------------|
A|-444444444422200000002222-4444444444222------------------|
E|---------------------------------------000000002222------|

G|----------------------------------|
D|----------------------------------|
A|-444444444422200000002222---------|
E|---------------------------2--4---|

G|----------------|
D|----------------|
A|---------2------|
E|-----0----------|

VERSE
G|-------------------------------------------------------------------|
D|-------------------------------------------------------------------|
A|-444444444---------------------------------------------------------|
E|----------555555555777777777444444444555555555222222222444444444---|

G|----------------|
D|----------------|
A|---------2------|
E|-----0----------|

G|-------------------------------------------------------------------|
D|-------------------------------------------------------------------|
A|-444444444---------------------------------------------------------|
E|----------555555555777777777444444444555555555222222222444444444---|

CHORUS
G|--------------------------------|
D|--------------------------------|
A|-----2-0-2-4--4-4-0-2-0-2--4---|
E|-0-0----------------------------| X2

VERSE
G|-------------------------------------------------------------------|
D|-------------------------------------------------------------------|
A|-444444444---------------------------------------------------------|
E|----------555555555777777777444444444555555555222222222444444444---|
[ Tab from: https://www.guitartabs.cc/tabs/w/within_temptation/deceiver_of_fools_btab.html ]
G|----------------|
D|----------------|
A|---------2------|
E|-----0----------|

G|-------------------------------------------------------------------|
D|-------------------------------------------------------------------|
A|-444444444---------------------------------------------------------|
E|----------555555555777777777444444444555555555222222222444444444---|

CHORUS
G|--------------------------------|
D|--------------------------------|
A|-----2-0-2-4--4-4-0-2-0-2--4---|
E|-0-0----------------------------| X2

INTERLUDE
G|-----------------------------------------------|
D|-----------------------------------------------|
A|-----------4---4-----2---2----4-4-4----4-4-4---|
E|-2---2--0--------------------------------------|

G|----------------------------------------------|
D|----------------------------------------------|
A|-----------4---4-----0---0------2---2---------|
E|-2---2--0-------------------------------------|

CHORUS
G|--------------------------------|
D|--------------------------------|
A|-----2-0-2-4--4-4-0-2-0-2--4---|
E|-0-0----------------------------| X2

INTRO
G|----------------------------------|
D|----------------------------------|
A|--4-4-4-4-------4-4-4-4----------|
E|------------0--2------------2--4--|

G|---------------------------------------------------------|
D|---------------------------------------------------------|
A|-444444444422200000002222-4444444444222------------------|
E|---------------------------------------000000002222------|

G|----------------------------------|
D|----------------------------------|
A|-444444444422200000002222---------|
E|---------------------------2--4---|

G|----------------|
D|----------------|
A|---------2------|
E|-----0----------|

CHORUS
G|--------------------------------|
D|--------------------------------|
A|-----2-0-2-4--4-4-0-2-0-2--4---|
E|-0-0----------------------------| X2