Wilson Pickett - Mustang Sally Chords & Tabs

 

Mustang Sally Chords & Tabs

Wilson Pickett Chords & Tabs

Version: 2 Type: Bass Tab

Mustang Sally Bass Tab

Tabbed by: BASSteve

Tuning: EADG

Time signature: 4/4

r = rest (listen for duration)

*My tabs are meant to be read in conjunction with listening to the song.
In other words, there are no specific notations to account for note/rest duration. 
However, you will find that Iíve made an attempt to strategically space the notes 
and rests within their respective measures in order to represent the appropriate durations.


                11x
G|--------------------------------|--------------------------------|
D|--------------------------------|------------0-------1-------2---|
A|3-3---r-------------1---r---2---|3-3---r-------------------------|
E|------------3---r---------------|--------------------------------|

[ Tab from: https://www.guitartabs.cc/tabs/w/wilson_pickett/mustang_sally_btab_ver_2.html ]
                3x
|--------------------------------|--------------------------------|
|3-3---r---------1-------1---2---|3-3---r---------1-------1-------|
|------------3-------3-----------|------------3-------3-------1---|
|--------------------------------|--------------------------------|


                3x
|--------------------------------|--------------------------------|
|--------------------------------|--------------------------------|
|3-3---r-------------1---r---2---|3-3---r-------------1---r---5---|
|------------3---r---------------|------------3---r---------------|



|--------------------------------|--------------------------------|
|5-5---r-------------3---r---4---|5-5---r---------5-------5---4---|
|------------5---r---------------|------------5-------5-----------|
|--------------------------------|--------------------------------|



|--------------------------------|--------------------3-----------|
|3-r-----------------------------|r---------------5-------5-------|
|--------------------------------|--------------------------------|
|--------------------------------|----------------------------3---|


Repeat with some variation



              (PLEASE RATE THIS TAB / LEAVE COMMENT)