Who - My Wife Chords & Tabs

 

My Wife Chords & Tabs

Who Chords & Tabs

Version: 2 Type: Bass Tab

My Wife Bass Tab

   
Song: My Wife
Album: Whoís Next
Year: 1971
Written by John Entwistle
Bass by John Entwistle
Tabbed by BIG TOMMY P!

Standard tuning

G|-------------------------------------------------------|
D|----------------------------------------55-555-555-555-|
A|22-222-222-222-222-222-222-222-222-222-2---------------|
E|-------------------------------------------------------|

G|--------------------------------------------------------|
D|522-222-200-000-022-222-2------------------------55-555-|
A|-------------------------22-222-222-222-244-444-4-------|
E|--------------------------------------------------------|

G|--------------------------------------------------------|
D|522-222-222-222-200-000-055-555-544-444-444-444-4-------|
A|-------------------------------------------------22-222-|
E|--------------------------------------------------------|

G|--------------------------------------------------------|
D|---------------------------------55-555-555-555-522-222-|
A|222-222-222-222-222-222-222-222-2-----------------------|
E|--------------------------------------------------------|

G|--------------------------------------------------------|
D|222-222-200-000-022-222-2------------------------55-555-|
A|-------------------------22-222-222-222-244-444-4-------|
E|--------------------------------------------------------|

G|--------------------------------------------------------|
D|522-222-222-222-200-000-055-555-544-444-444-444-422-222-|
A|--------------------------------------------------------|
E|--------------------------------------------------------|
[ Tab from: https://www.guitartabs.cc/tabs/w/who/my_wife_btab_ver_2.html ]
G|--------------------------------------------------------|
D|244-444-4--------------------22-222-244-444-4-----------|
A|---------22-222-244-444-444-4----------------22-222-222-|
E|--------------------------------------------------------|

G|--------------------------------------------------------|
D|--------------------------------------------------------|
A|222-222-222-222-222-222-222-222-222-222-222-222-222-222-|
E|--------------------------------------------------------|

G|--------------------------------------------------------|
D|--------------------------------------------------------|
A|222-222-222-222-222-222-222-222-222-222-222-222-222-222-|
E|--------------------------------------------------------|

G|--------------------------------------------------------|
A|-------------55-555-555-555-522-222-200-000-022-222-2---|
D|222-222-222-2----------------------------------------22-|
E|--------------------------------------------------------|

G|--------------------------------------------------------|
D|---------------------55-555-522-222-222-222-222-200-000-|
A|222-222-222-244-444-4-----------------------------------|
E|--------------------------------------------------------|

G|--------------------------------------------------------|
D|055-555-544-444-444-444-422-222-244-444-4---------------|
A|-----------------------------------------22-222-244-444-|
E|--------------------------------------------------------|

G|-------------------------------------------------------|
D|-22-222-244-444-4--------------------------------------|
A|4----------------22-222-222-222-(repeat until end)-----|
E|-------------------------------------------------------|

There, if thatís not 100% correct, itís because I would
Have made a transcription error, itís a very easy song,
But fun to play nonetheless, rate it.