White Zombie - Starface Chords & Tabs

 

Starface Chords & Tabs

White Zombie Chords & Tabs

Version: 1 Type: Bass Tab

Starface Bass Tab



Intro
[-------------------------------------------------------------------------]
[-------------------------------------------------------------------------]
[---------9-7------7----------9-7------12-12--12-12--12-12--12-12--12--12-]
[--2-----------7------5-4-2--------7--------------------------------------]

Riff 1
[--------------------------------------------------]x2
[---------------------------------------------20---]
[------------3h2h1-3h2p0---------------------------]
[--22223-02-----------------22223-022222-----------]

Riff 2
[--------------------------------------------------------------------------]
[----------------0h2-----------------------------------0h2-4-2-------------]
[--------------------------------------------------------------4-3-2-0-----]
[-02-03-05-07-0--------02-03-05-07-3--02-03-05-07-0-----------------------]

Verse
[-------------------------------------------------------------------]x2
[-------------------------------------------------------------------]
[-------------------------------------------------------------------]
[-02-02-02--5-4-3--02-02-02--0-1-2--02-02-02--5-4-3--02-02-02-0-1-2-]

Chorus
[------------------------------------------------]x2
[------------------------------------------------]
[---------0--------3-2----------0----------------]
[-2222-------2222---------2222----22223-223------]
[ Tab from: https://www.guitartabs.cc/tabs/w/white_zombie/starface_btab.html ]
Riff 2
Verse
Chorus
Verse

Bridge
[----------------------------------------------------|
[----------------------------------------------------|
[--------------------5-4-3--------------------5-4-3--|
[-02-02--5-4-302-02-------02-02--5-4-302-02--------|

-----------------------------------------------------------]
-----------------------------------------------------------]
---------3-2-0-----------5-4-3--------3-2-0---------5-4-3--]
--02-02----------02-02----------02-02--------02-02---------]

Verse, Different variation
[---------------------------------------------------------------]
[---------------------------------------------------------------]
[---------------------------------------------------------------]
[-02-02-02--0-1-2--02-02-02--0-1-2--02-02-02--0-1-2--02-0h2-0h2-]

Fill
[----------------------------------------------------]
[----------------------------------------------------]
[--------------------2-0-------------------------2-0-]
[--0h2-0h2-0h2--5-0--------0h20h20h2-2222222-5-0-----]


Fill 2                           Then
[---------------------------]x4  [----9----------------------]
[---7-7-7-777-7-7-7--9-7----]    [---------------------------]
[--0-0-0-0---0-0-0-0-----9--]    [-7---------7-------\17-----]
[---------------------------]    [-------\12-----------------]

Riff 1
Riff 2
Verse
Chorus
Outro/ Same as Intro