While She Sleeps - Seven Hills Chords & Tabs

 

Seven Hills Chords & Tabs

While She Sleeps Chords & Tabs

Version: 2 Type: Bass Tab

Seven Hills Bass Tab

   
-------------------------------------------------------------------------------
                             Seven Hills  While She Sleeps
-------------------------------------------------------------------------------
Tabbed by: BearHades    
E-mail: chunter_95@ymail.com

Tuning:CGCF

INTRO
F|------------------------------------------------------------------|
C|------------------------------------------------------------------|
G|------------------------------------------------------------------|
C|-1111111111111111--3333333333333333--5555555555555555---0--0--0---|

F|------------------------------------------------------------------|
C|------------------------------------------------------------------|
G|------------------------------------------------------------------|
C|-1111111111111111--3333333333333333--555555555555555500-00-00---|

F|-------------------------------------------------------------|
C|-------------------------------------------------------------|
G|-------------------------------------------------------------|
C|-1-1-1-1-1-1--3-3-3-3-3-3--5-5-5-5-5-5-5-5-5-00-00-00--------|

Pre-verse
F|--------------------------------------------|
C|--------------------------------------------|
G|--------------------------------------------|
C|-11111111--1-1111111--1-1111111--3-3333333--|

Verse
F|---------------------------------------------|
C|---------------------------------------------|
G|---------------------------------------------|
C|-0-0000000--1-1111111--1-1111111--3-3333333--| x3

Pre-Chorus
F|---------------------|
C|---------------------|
G|---------------------|
C|-1---3--0--1---3--0--|

F|-------------------------------|
C|-------------------------------|
G|-------------------------------|
C|-5---8---1---3---5---8---1---3-|
[ Tab from: https://www.guitartabs.cc/tabs/w/while_she_sleeps/seven_hills_btab_ver_2.html ]
Chorus
F|--------------------------------------------------------------------------|
C|--------------------------------------------------------------------------|
G|--------------------------------------------------------------------------|
C|-55555555-55555555-55555555-88888888-11111111-11111111-33333333-33333333--| x2

F|-----------------------|
C|-----------------------|
G|-----------------------|
C|-1-1-1-1-1-1--3-3-3-3--|

Verse
F|--------------------------------------------|
C|--------------------------------------------|
G|--------------------------------------------|
C|-1-1111111--1-1111111--3-3333333--0-0000000-| x4

Repeat Pre-Chorus



F|-------------------------------------------|
C|-------------------------------------------|
G|-------------------------------------------|
C|-1-1111111(x2)-3-3333333(x2)-5-5555555(x4)-|

F|---------------------------------------------------|
C|---------------------------------------------------|
G|---------------------------------------------------|
C|-1-1111111(x2)-3-3333333(x2)-5-5555555(x3)--33333--|

F|--------------------------------------------------|
C|--------------------------------------------------|
G|--------------------------------------------------|
C|-1-1-1-1-1-1-1-1-1-1-1-1-1-1-1-1-1-1-3-3-3-3-3-3--| x2

Epic guitar sound and 

F|-----------------------------------------------|
C|-----------------------------------------------|
G|-----------------------------------------------|
C|-1-1-1-1-1-1-3-3-3-3-3-3-3-5-5-5-5-5-5-5-5-5---|

F|--------------------------------------------------------|
C|--------------------------------------------------------|
G|--------------------------------------------------------|
C|-1-1-1-1-1-1-1-1-1-3-3-3-3-3-3-5-5-5-5-5-5-5-5-5-1-1-1--|


F|-------------------------------------------------|
C|-------------------------------------------------|
G|-------------------------------------------------|
C|-1-1111111--1-11111111--3-3333333-3-3333333--5---|

| /  slide up
| \  slide down
| h  hammer-on
| p  pull-off
| ~  vibrato
| +  harmonic
| x  Mute note