Wesley Willis - Rock N Roll Mcdonalds Chords & Tabs

 

Rock N Roll Mcdonalds Chords & Tabs

Wesley Willis Chords & Tabs

Version: 1 Type: Bass Tab

Rock N Roll Mcdonalds Bass Tab

This is actually the backing music to quite a great number of Wesley's songs.

[ Tab from: https://www.guitartabs.cc/tabs/w/wesley_willis/rock_n_roll_mcdonalds_btab.html ]
Introduction                      Verse
|---------5--------------------|-----------------------------------------|
|---5--7----7--5---------------|--------------5---3----------------32---|
|--------------------7---5---3-|-33--33-33-3--------3-33--33-33-3--------|
|------------------------------|-----------------------------------------|


On certain songs the verse is slightly different.  This is my favorite variation:

|----------------5---3--------------------3--5-|
|-33--33-33-3-------------3-33--33-33-3--------|
|----------------------------------------------|
|----------------------------------------------|