Wallflowers - Murder 101 Chords & Tabs

 

Murder 101 Chords & Tabs

Wallflowers Chords & Tabs

Version: 1 Type: Bass Tab

Murder 101 Bass Tab

   
-----------------------------------------------------------------------------
			     Murder 101 (Breach)  The Wallflowers
-----------------------------------------------------------------------------

Tabbed By : ChrisMill5
e-mail: christian.h.mills@gmail.com

Tuning: Standard

Intro (0:07)
G|--12h14-12h14-12h14-12h14-------------------------------------------------|
D|--------------------------------------------------------------------------|
A|-------------------------------------------------------------------17/----|
E|--------------------------------------------------------------------------|

Verse (0:13)
G|--------------------------------------------------------------------------|
D|--------------------------------------------------------------------------|
A|--5--5-5--5-2--2-2--2-----------------------------------------------------|
E|----------------------2--2-2--2-3--3-5--5---------------------------------|

G|--------------------------------------------------------------------------|
D|--------------------------------------------------------------------------|
A|--5--5-5--5-2--2-2--2-----------------------------------------------------|
E|----------------------2--2-2--2-3--3-5--5---------------------------------|

(0:26)
Eighth notes
G|--------------------------------------------------------------------------|
D|--------------------------------------------------------------------------|
A|--------------------------------------------------------------------------|
E|--(5)/7-7-7-7-7-7-7-7-7/15-15-15-15-15-15-15-15-13-13-13-13-13-13-13-13---|

G|--------------------------------------------------------------------------|
D|--------------------------------------------------------------------------|
A|--------------------------------------------------------------------------|
E|--13-13-13-13-/-/-/-/-----------------------------------------------------|

G|--------------------------------------------------------------------------|
D|--------------------------------------------------------------------------|
A|--------------------------------------------------------------------------|
E|--(5)/7-7-7-7-7-7-7-7-7/15-15-15-15-15-15-15-15-13-13-13-13-13-13-13-13---|

G|--------------------------------------------------------------------------|
D|--------------------------------------------------------------------------|
A|--------------------------------------------------------------------------|
E|--3----5------------------------------------------------------------------|

Verse (0:38)
G|--------------------------------------------------------------------------|
D|--------------------------------------------------------------------------|
A|--5--5-5--5-2--2-2--2-----------------------------------------------------|
E|----------------------2--2-2--2-3--3-5--5---------------------------------|

G|--------------------------------------------------------------------------|
D|--------------------------------------------------------------------------|
A|--5--5-5--5-2--2-2--2-----------------------------------------------------|
E|----------------------2--2-2--2-3--3-5--5---------------------------------|

(0:51)
Eighth notes
G|--------------------------------------------------------------------------|
D|--------------------------------------------------------------------------|
A|--------------------------------------------------------------------------|
E|--(5)/7-7-7-7-7-7-7-7-7/15-15-15-15-15-15-15-15-13-13-13-13-13-13-13-13---|

G|--------------------------------------------------------------------------|
D|--------------------------------------------------------------------------|
A|--------------------------------------------------------------------------|
E|--13-13-13-13-/-/-/-/-----------------------------------------------------|

G|--------------------------------------------------------------------------|
D|--------------------------------------------------------------------------|
A|--------------------------------------------------------------------------|
E|--(5)/7-7-7-7-7-7-7-7-7/15-15-15-15-15-15-15-15-13-13-13-13-13-13-13-13---|
[ Tab from: https://www.guitartabs.cc/tabs/w/wallflowers/murder_101_btab.html ]
G|--------------------------------------------------------------------------|
D|--------------------------------------------------------------------------|
A|--------------------------------------------------------------------------|
E|--3----5------------------------------------------------------------------|

Solo (1:04)
G|--------------------------------------------------------------------------|
D|-----------------6/9--7--7-----5--5-7-5-----------------------------------|
A|--------5h6h7--7-----------77-----------7-6-------------------------------|
E|--7--7-7------------------------------------------------------------------|

G|--------------------------------------------------------------------------|
D|---------------9/14-11-----9/11-------------------------------------------|
A|--555555567/11---------12---/12-------------------------------------------|
E|--------------------------------------------------------------------------|

Verse (1:17)
G|--------------------------------------------------------------------------|
D|--------------------------------------------------------------------------|
A|--5--5-5--5-2--2-2--2-----------------------------------------------------|
E|----------------------2--2-2--2-3--3-5--5---------------------------------|

G|--------------------------------------------------------------------------|
D|--------------------------------------------------------------------------|
A|--5--5-5--5-2--2-2--2-----------------------------------------------------|
E|----------------------2--2-2--2-3--3-5--5---------------------------------|

G|--------------------------------------------------------------------------|
D|-----------7---7h9--------------------------------------------------------|
A|--5--5-5/9---9-----9-7-9--9-9--9-10--10-12--12----------------------------|
E|--------------------------------------------------------------------------|

(1:36)
Eighth notes
G|--------------------------------------------------------------------------|
D|--------------------------------------------------------------------------|
A|--------------------------------------------------------------------------|
E|--(5)/7-7-7-7-7-7-7-7-7/15-15-15-15-15-15-15-15-13-13-13-13-13-13-13-13---|

G|--------------------------------------------------------------------------|
D|--------------------------------------------------------------------------|
A|--------------------------------------------------------------------------|
E|--13-13-13-13-/-/-/-/-----------------------------------------------------|

G|--------------------------------------------------------------------------|
D|--------------------------------------------------------------------------|
A|--------------------------------------------------------------------------|
E|--(5)/7-7-7-7-7-7-7-7-7/15-15-15-15-15-15-15-15-13-13-13-13-13-13-13-13---|

G|--------------------------------------------------------------------------|
D|--------------------------------------------------------------------------|
A|--------------------------------------------------------------------------|
E|--13----------------------------------------------------------------------|

G|--------------------------------------------------------------------------|
D|--------------------------------------------------------------------------|
A|--------------------------------------------------------------------------|
E|--(13)/10-10-10-10-10-10-10/9-9-9-9-9-9-9-9/12-12-12-12-12-12-12-12/13----|

G|--------------------------------------------------------------------------|
D|--------------------------------------------------------------------------|
A|--------------------------------------------------------------------------|
E|--13-13-13-13-13-13-13-13-------------------------------------------------|

Outro (1:55)
G|--------------------------------------------------------------------------|
D|--5--------12----12-11-9-7-5------------12----12-11-14-12-----------------|
A|--------------------------------------------------------------------------|
E|--------------------------------------------------------------------------|

G|--------------------------------------------------------------------------|
D|--5--------7----12-11-9-7-5------------7----12-11-9-7-5-------------------|
A|--------------------------------------------------------------------------|
E|--------------------------------------------------------------------------|

| /  slide up
| \  slide down
| h  hammer-on
| p  pull-off
| ~  vibrato
| +  harmonic
| x  Mute note
===============================================================================