Vast - Everything Passing By Chords & Tabs

 

Everything Passing By Chords & Tabs

Vast Chords & Tabs

Version: 1 Type: Tab

Everything Passing By Tab

   
VAST
Everything Passing By
Tabbed by GOLDZWEIG

A beautiful VAST song of their new album "April 2.0".
This song is a little bit different than the other version. The intro was played on 
but in April 2.0 Jon plays it on a piano.

Intro (Piano)

e|-----------------------------------| |------------------------------------|
B|-----------------------------------| |------------------------------------|
G|-----0-------0-------0---2---0-----| |-----0-------0-------0---2---0------|
D|---3---3---3---3---3---3---3---3---| |---3---3---3---3---3---3---3---3----|
A|-1-------1-------0-----------------| |------------------------------------|
E|-----------------------------------| |-3-------3-------1------------------|

Violin (Arrange for guitar)

e|-------------------------------------------------------|
B|-------------------------------------------------------|
G|-15-14-12-12-14-14--12-14-15-14-12-10-12-12-14---------|
D|-------------------------------------------------------|
A|-------------------------------------------------------|
E|-------------------------------------------------------|

I want to stay here forever....
[ Tab from: https://www.guitartabs.cc/tabs/v/vast/everything_passing_by_tab.html ]
e|-----------------------------------| |------------------------------------|
B|-----------------------------------| |------------------------------------|
G|-----0-------0-------0---2---0-----| |-----0-------0-------0--5-5-3-3-2-2-|
D|---3---3---3---3---3---3---3---3---| |---3---3---3---3---3----------------|
A|-1-------1-------0-----------------| |------------------------------------|
E|-----------------------------------| |-3-------3-------1------------------|


Chorus: (Basicly a two notes song)

   F     Bb
e|-----------|
B|-----------|
G|-2-----3---|
D|-3-----3---|
A|-3-----1---|
E|-1---------|


F, Bb
everything passing by... coming back

Violin parts:

e|-----------------------|-----------------------------------------|
B|-----------------------|-----------------------------------------|
G|-17-17-15-15-14-14-----|--12-10--12-10--12--12-10-14-10-12-10----|
D|-----------------------|-----------------------------------------|
A|-----------------------|-----------------------------------------|
E|-----------------------|-----------------------------------------|

--------------------------------------------------|
--------------------------------------------------|
-15-14-12-12-10-10--12-14-15-14-12-10-12-12-14----|
--------------------------------------------------|
--------------------------------------------------|
--------------------------------------------------|

Lyrics:
I want to stay here forever
Feeling the warmth from your skin
How was i dont know life would
Make a joke out of all our love

Everything passing by is not coming back

How could i be so careless
Its not like we live forever
How was i dont know life would
Make a joke out of all our love

Everything passing by is not coming back

Everything passing by is not coming back

Let me stay here forever
Feeling the love from your soul
Id give up all my days
To have just one more day with you

Everything passing by is not coming back

Everything passing by is not coming back