Vapors - Civic Hall Chords & Tabs

 

Civic Hall Chords & Tabs

Vapors Chords & Tabs

Version: 1 Type: Bass Tab

Civic Hall Bass Tab

   
Civic Hall  The Vapors
Bassist  Steve Smith
Tabbed by  Derek.
Tuning - Standard


Intro/Chorus
G|---------------------------------------------------------------------------|
D|---------------------------------------------------------------------------|
A|--9-7-5-4-----(-7-8-10-)---------------------------------------------------|
E|---------------------------------------------------------------------------|
[ Tab from: https://www.guitartabs.cc/tabs/v/vapors/civic_hall_btab.html ]
Verse
G|---------------------------------------------------------------------------|
D|------7--------------------------------------------------------------------|
A|--7-9---77-99(77-10)------------------------------------------------------|
E|---------------------------------------------------------------------------|

Outro
G|---------------------------------------------------------------------------|
D|---------------------------------------------------------------------------|
A|--9-7-5-4-/9---------------------------------------------------------------|
E|---------------------------------------------------------------------------|

Listen for the order, its pretty simple.

() Indicate occasional change ups, listen for them, theyre pretty noticeable.

Im sure Im missing some fillers, but I do believe this is the base of the bass part if 
makes sense.

| /  slide up
| \  slide down
| h  hammer-on
| p  pull-off
| ~  vibrato
| +  harmonic
| x  Mute note