Vanilla Sky - Goodbye Chords & Tabs

 

Goodbye Chords & Tabs

Vanilla Sky Chords & Tabs

Version: 1 Type: Bass Tab

Goodbye Bass Tab

   
Band: Vanilla sky
Album: changes
Song: goodbye

/ = slide up
\ = slide down

Drop d tuning

Verse (0:07) 

G|-777---------6666-|
D|----777779999-----| 
A|------------------| x4
D|------------------|

G|-7----------------|
D|--555555555555555-| 
A|------------------|
D|------------------|

G|-777---------6666-|
D|----777779999-----| 
A|------------------| x4
D|------------------|

G|-7----------------|
D|--555555555555555-| 
A|------------------|
D|------------------|

G|-777---------6666-|
D|----777779999-----| 
A|------------------|
D|------------------|

Pre-chorus (0:41)

G|----------------------------------|
D|----------------------------------| 
A|----------------------------------|
D|-7777777777777777555555555\-------|

Chorus (0:48)

G|------------------------------------------------------------------|
D|--------------------------------------------------------/55555555-| 
A|-5555555555555555----------------2222222222222222-----------------|
D|-----------------5555555555555557----------------5555555----------|

G|------------------------------------------------------------------|
D|------------------------------------------------------------------| 
A|-5555555555555555----------------2222222222222222-----------------|
D|-----------------5555555555555-7-----------------5555555555555555-|

Post  chorus (1:15)

G|-777---------6666-|
D|----777779999-----| 
A|------------------| x2
D|------------------|

Verse 2 (1:23)

G|-------------------------------------------------------------------|
D|---------------------------------------------------------------tri-|
A|-555555555555555555555555555555-5----------------5555555555555-555-|
D|---------------------------------5555555555555555------------------|
[ Tab from: https://www.guitartabs.cc/tabs/v/vanilla_sky/goodbye_btab.html ]
G|------------------------------------------------------------------|
D|------------------------------------------------------------------|
A|-555555555555555555555555555555-5----------------5555555555555555-|
D|---------------------------------5555555555555555-----------------|

Pre-chorus 2 (1:50)

G|----------------------------------|
D|----------------/55555555---------| 
A|---------------2/-----------------|
D|-7777777777777-----------5\-------|

Chorus (1:56)

G|------------------------------------------------------------------|
D|--------------------------------------------------------/55555555-| 
A|-5555555555555555----------------2222222222222222-----------------|
D|-----------------5555555555555557----------------5555555----------|

G|------------------------------------------------------------------|
D|------------------------------------------------------------------| 
A|-5555555555555555----------------2222222222222222-----------------|
D|-----------------5555555555555-7-----------------5555555555555555-|

Bridge (2:24)

G|------------------------------------|
D|------------------------------------| 
A|------------------------------tri---|                         
D|-22222222222222225555555555555555-0-|

G|----------------------------------|
D|----------------------------------| 
A|----------------------------------|
D|-22222222222222225555555555777777-|

Pause

Last chorus (2:45)

G|------------------------------------------------------------------|
D|--------------------------------------------------------/55555555-| 
A|-555---555---5-------------------2222222222222222-----------------|
D|----000---000----5555555555555557----------------5555555----------|

G|------------------------------------------------------------------|
D|------------------------------------------------------------------| 
A|-5555555555555555----------------2222222222222222-----------------|
D|-----------------5555555555555-7-----------------5555555555555555-|

Post  chorus (3:12)

G|-777---------6666-|
D|----777779999-----| 
A|------------------| x4
D|------------------|