Useless Id - Deny It Chords & Tabs

 

Deny It Chords & Tabs

Useless Id Chords & Tabs

Version: 1 Type: Bass Tab

Deny It Bass Tab

+++++++++++++++++++++++
| Useless ID- Deny It |
+++++++++++++++++++++++

EADG

Intro
1.
G|---------------------------------------------------------|
D|---------------------------------------------------------|
A|-555555-222222-555555-222222-----------------------------|
E|-----------------------------000000-555555-000000-555555-|

Verse
2.
G|----------------------------------------------------------|
D|----------------------------------------------------------|
A|-555x--222x--555x--222x-2x-2x-----------------------------|
E|------------------------------000000-555555-000000-555555-|

3.
G|-------------------------------------------------------------|
D|-------------------------------------------------------------|
A|-555x--222x--555x--222x-2x-2x--------------------------------|
E|------------------------------000000-555555-000000-5555-6666-|

Pre-chorus
4.
G|------------------------------------------------|
D|------------------------------------------------|
A|-222-------------222-------------222------------|
E|-----222-333-555-----222-333-555-----222-333-5x-|

Chorus
"Deny it...You never won..."
5.
G|---------------------------------------------------------|
D|---------------------------------------------------------|
A|-555555-222222---------------555555-222222---------------|
E|---------------333333-555555---------------333333-555555-|

Outro
6.
G|--------------------------------|
D|--------9\1-pluck-while-sliding-|
A|-555x---------------------------|
E|--------------------------------|

Verse
7.
G|-----------------------------------------------------------|
D|-----------------------------------------------------------|
A|-555555-222222-555555-222222-------------------------------|
E|-----------------------------000000-555555-000000-5x--5-5x-|

8.
G|-------------------------------------------------------------|
D|-------------------------------------------------------------|
A|-555x--222x--555x--222x-2x-2x--------------------------------|
E|------------------------------000000-555555-000000-5555-6666-|

Pre-chorus
9.
G|-----------------------------------------------|
D|-----------------------------------------------|
A|-222-------------222-------------222-----------|
E|-----222-333-555-----222-333-555-----222-3x-5x-|
[ Tab from: https://www.guitartabs.cc/tabs/u/useless_id/deny_it_btab.html ]
Chorus
"Deny it...You never won..."
10.
G|---------------------------------------------------------|
D|---------------------------------------------------------|
A|-555555-222222---------------555555-222222---------------|--x2
E|---------------333333-555555---------------333333-555555-|

Outro
11.
G|----------------------------------------------------------|
D|----------------------------------------------------------|
A|-------------5~----2~----------------2~----4x----4-4x--4x-|
E|-3~----5~----------------3~----5~-------------------------|

12.
G|---------------------------------------|
D|---------------------------------------|
A|---------------555555-222222-----------|
E|-333333-555555---------------333333-5x-|

Chorus
"Deny it...You never won..."
13.
G|---------------------------------------------------------|
D|---------------------------------------------------------|
A|-555555-222222---------------555555-222222---------------|
E|---------------333333-555555---------------333333-555555-|

"Deny it...You never won..."
14.
G|-------------------------------------------------------------------------------------|
D|-------------------------------------------------------------------------------------|
A|-5~-5-55---2~-2-22------------------------5~-5-55---2~-2-22-----------------------5~-|
E|--------2---------2--3~-3-332--5~-5-55-5---------2---------2--3~-3-332--5~-5-55-5----|

Lyrics:


Call up the station.
Intimidation.
No need to go on.
Make some plans for everyone.
Dress up, you donít fit.
This suits me perfect.
Take a photograph.
Leave a dying image.
Wait for the train that may never arrive.
Place yourself in the middle and push me aside.
You better hold on because this is your last ride.

Deny it.
You never won.
Do you ever wonder why?
Deny it.
You never won.
Do you ever wonder why?

Itís going to hit you when you least expect it.
Itís been happening so long.
I guess we knew it all along.
Reach for your limits.
I donít think weíll make it.
If it were up to you then none of us would be around.
Starve for a good day.
At home it would last.
You can save me a window for questions you ask.
After what weíve been through it doesnít matter.

Look at yourself.
You never belong.
You never bothered to blend.
This latest fashion has brought us apart.
You did your time, now GO!

+++++++++++++++++++++++++++++++++
| RaiLeff                       |
| Underground__Dora@Hotmail.Com |
+++++++++++++++++++++++++++++++++