Urban Dub - Soul Searching Chords & Tabs

 

Soul Searching Chords & Tabs

Urban Dub Chords & Tabs

Version: 4 Type: Tab

Soul Searching Tab

Soul searching by urban dub
tabbed by justin carlo c
visit me at my friendster account justincarlo88@yahoo.com
yahoo messenger - jco_lead
(the winning piece!!! hehehe)

INTRO (1st part) (x4)
(distortion)
mute plucking
----------------------------------------|
----------------------------------------|
----------------------------------------|
----------------------------------------|
--66---777-66-77------------------------|
-4--777--------77-----------------------|

INTRO (2nd part) (x4)
Guitar1
(Distortion)
----------------------------------------|
----------------------------------------|
----------------------------------------|
----4-6---------------------------------|
-6-2-2-4--------------------------------|
-4-0------------------------------------|

Guitar2 (x2)
(distortion)
----------------------------------------|
----------------------------------------|
-8-4-6-8-11---8-4-6-66s8-8-6------------|
----------------------------------------|
-6-2-4-6-9----6-2-4-44s6-6-4------------|
----------------------------------------|

VERSE
Guitar1 (x4)
(distortion)
mute plucking
----------------------------------------|
----------------------------------------|
----------------------------------------|
----------------------------------------|
--66---777-66-77------------------------|
-4--777--------77-----------------------|

Guitar2
(distortion)

-------------------------|
-------------------------|
-------------------------|
--13---------------------|
--11---------------------|
-------------------------|

** theres a catch here, playing guitar 2 must be consecutively simultaneous to gutar1
[ Tab from: https://www.guitartabs.cc/tabs/u/urban_dub/soul_searching_tab_ver_4.html ]
-------------------------|
-------------------------|
-------------------------|
--13---------------------|
--11---------------------|
-------------------------|

CHORUS (x4)
Guitar1
(distortion)
-----------------------------------|
-----------------------------------|
-----------------------------------|
-9-6-------------------------------|
-7-4-------------------------------|
-----------------------------------|

guitar2
h-hammer on
H-hammer off
s-slide
/-bend
---------------------------------|
---------------------------------|
--9H8-9H8-9H8-9H89s11-----------|
----9---9---9--9-----------------|
---------------------------------|
---------------------------------|

----------------------------------------|
----------------------------------------|
-9H8--------------9H8-------------------|
----9s11-9-9s11-9------9s11-9-9s11-9----|
---------------11---------------11------|
----------------------------------------|
** theres a catch here, playing guitar 2 must be consecutively simultaneous to gutar1

BRIDGE (x4)
Guitar1
(distortion)
----------------------------------------|
----------------------------------------|
----------------------------------------|
-9-6------------------------------------|
-7-4------------------------------------|
----------------------------------------|

** the half of the bridge must be played the same but with mute.

tnx to all who have inspired me play...G0D, my family, bea, friends/classmates, NU 107, 
the opm bands who inspired me from their songs!
support our band freefall/ support our song tightrope!
freefall@yahoo.com (friendster account) \m/
please rate my tab