Unwound - Abstraktions Chords & Tabs

 

Abstraktions Chords & Tabs

Unwound Chords & Tabs

Version: 1 Type: Bass Tab

Abstraktions Bass Tab

Artist: Unwound
Song: "Abstraktions"
Album: New Plastic Ideas (1994)



Bass
Part I:
G|------------------------------------------------|
D|----------------9--9\---------------------------|
A|------/7--7--7-----------3-----3--3--3----------|
E|-0--------------------------------------5--5--5-|


Part II:
G|------------------------------------------------|
D|----------------9--9\---------------------------|
A|-------7--7--7-----------3-----3--3--3-h5-----3-|
E|-0-----------------------------------------5----|


[ Tab from: https://www.guitartabs.cc/tabs/u/unwound/abstraktions_btab.html ]
Part III (this section x 3)
G|------------------------------------------------|
D|-6--6--6--6--6--6--6--6--6--6--6--6--6--6--6--6-|
A|------------------------------------------------|
E|------------------------------------------------|
+
G|------------------------------------------------|
D|------------------------------------------------|
A|-7--7--7--7--7--7--7--7--7--7--7--7--7--7--7--7-|
E|------------------------------------------------|
+
G|-7--7--7--7--7--7--7--7--7--7--7--7--7--7--7--7-|
D|-0--0--0--0--0--0--0--0--0--0--0--0--0--0--0--0-|
A|------------------------------------------------|
E|------------------------------------------------|
+
G|------------------------------------------------|
D|-7--7--7--7--7--7--7--7--7--7--7--7--7--7--7--7-|
A|-0--0--0--0--0--0--0--0--0--0--0--0--0--0--0--0-|
E|------------------------------------------------|
+
Part III (this section x 1):
G|------------------------------------------------|
D|-7--7--7--7--7--7--7--7--7--7--7--7--7--7--7--7-|
A|-0--0--0--0--0--0--0--0--0--0--0--0--0--0--0--0-|
E|------------------------------------------------|
+
G|------------------------------------------------|
D|------------------------------------------------|
A|-7--7--7--7--7--7--7--7--7--7--7--7--7--7--7--7-|
E|-0--0--0--0--0--0--0--0--0--0--0--0--0--0--0--0-|
+
G|------------------------------------------------|
D|------------------------------------------------|
A|------------------------------------------------|
E|-6--6--6--6--6--6--6--6--6--6--6--6--6--6--6--6-|
+
G|------------------------------------------------|
D|------------------------------------------------|
A|------------------------------------------------|
E|-5--5--5--5--5--5--5--5--5--5--5--5--5--5--5\---|



Part IV:
G|----------------------------7-----7-(7)---------|
D|----------------9--9\----5-----5----------------|
A|(7)----7--7--7--------------------------5--5--6-|
E|-0----------------------------------------------|



Part I/II (alt):
G|------------------------------------------------|
D|----------------9--9\---------------------------|
A|(7)---/7--7--7-----------3-----3--3-------------|
E|-0--------------------------------------5--5--5-|
+
G|------------------------------------------------|
D|----------------9--9\---------------------------|
A|-------7--7--7-----------3-----3--3--3-h5-----3-|
E|-0-----------------------------------------5----|



Final Bar:
G|------------------------------------------------|
D|------------------------------------------------|
A|-------7--7--7----------------------------------|
E|-0----------------------------------------------|



Song Structure:
Part I x 4
Part II x 2
Part I x 4
Part II x 2
Part III (3/1) x 1
Part I x 4
Part II x 2
Part IV x 4
Part I/II (alt) x 5
Part I x 6
Final Bar x 1



That's it.  Please leave any comments, questions, or requests.  Cheers!
-Bennyshambles78-