Ufo - Doctor Doctor Chords & Tabs

 

Doctor Doctor Chords & Tabs

Ufo Chords & Tabs

Version: 3 Type: Tab

Doctor Doctor Tab

   
UFO
Doctor Doctor

Palm mute (.)
Slide     (/)
Bend      (b)
Release   (r)

intro
E-------------------------------5-8p5-8/10-8h10p8\6-8---6\5/6\5--------------------|
B----5-6---8b10-10r8-6p5-5h6---6--------------------------------8-5h6-8p5-8p5-6----|
G--7-----7--------------------7----------------------------------------------------|
D----------------------------------------------------------------------------------|
A----------------------------------------------------------------------------------|
E----------------------------------------------------------------------------------|

E----------------10-12-13-10-------------------------------------------------------|
B----10-13-------------------10-13-13b15r13-13b15----------------------------------|
G----------12b14------------------------------------5h6-8p5-8p5-6------------------|
D-12-------------------------------------------------------------------------------|
A----------------------------------------------------------------------------------|
E----------------------------------------------------------------------------------|
[ Tab from: https://www.guitartabs.cc/tabs/u/ufo/doctor_doctor_tab_ver_3.html ]
E-----------10-12-12/13\12-10-12-10----13b15-15r13-10------------------------------|
B---------10------------------------10----------------13---------------------------|
G-------10-----------------------------------------------12b14r12-10---------------|
D----12--------------------------------------------------------------12------------|
A-12-------------------------------------------------------------------------------|
E----------------------------------------------------------------------------------|
                                  RIFF 1
			           start main RIFF2
E|-------------------------------|---------------------------------------------1-|
B|---------1---------------------|--5b-6r5-3-1--6-8br----5b-6r5-3-1-----3---4----|
G|---0-2-3---2-3-2--0-2-3-2-4-6--|--5b-6r5-3-2-----------5b-6r5-3-2---2b--4b-----|
D|-3---------------3-------------|-----------------------------------------------|
A|-------------------------------|-----------------------------------------------|
E|-------------------------------|-----------------------------------------------|

Main riff/verse
E[----------------------------------]
B[----------------------------------]
G[----------------------------------]
D[--7---7---7---7--3---3---3---3----]
A[--5-5-5-5-5-5-5--1-1-1-1-1-1-1----]
E[----------------------------------]
 pm    .   .   .       .   .   .
E[----------------------------------]
B[----------------------------------]
G[----------------------------------]
D[-----------------5---5---5---5----]
A[--3---3---3---3--3-3-3-3-3-3-3----]
E[--1-1-1-1-1-1-1-------------------]
 pm    .   .   .      .   .   .
E[----------------------------------]
B[----------------------------------]
G[----------------------------------]
D[--7---7---7---7--3---3---3---3----]
A[--5-5-5-5-5-5-5--1-1-1-1-1-1-1----]
E[----------------------------------]
 pm    .   .   .      .   .   .
E[----------------------------------]
B[----------------------------------]
G[----------------------------------]
D[----------------------------------]
A[--3---3---3---3----5----7---------]
E[--1-1-1-1-1-1-1----3----5---------]
 pm    .   .   .

Chorus
E[--------------------------------------------------------------]
B[--------------------------------------------------------------]
G[--------------------------------------------------------------]
D[--7-7---3-3---5-5---------------------7-7-7-7-----------------]
A[--5-5---1-1---3-3---3-3---5-5---7-7---5-5-5-5-----------------] play twice then
E[--------------------1-1---3-3---5-5---------------------------] repeat form RIFF1