U2 - With Or Without You Acoustic Chords & Tabs

 

With Or Without You Acoustic Chords & Tabs

U2 Chords & Tabs

Version: 3 Type: Tab

With Or Without You Acoustic Tab

   
With or Without You - U2 

This is simply how I like to play it & I think it's pretty accurate and has a nice feel to it.

Chords used are   (EADGBe)

D    xx0232
A    x02220
Bm   224432  (barre 2nd fret)
G    320003
         
Just picking each cord;

               D                           A               

e|----------2-------------2-------------0-----------0------------|
B|----3-------------3--------------2-----------2-----------------|
G|-------2-------------2-------------2-----------2---------------|
D|--0------------0-----------------------------------------------|
A|-------------------------------0----------0--------------------|
E|---------------------------------------------------------------|

                 Bm                           G
[ Tab from: https://www.guitartabs.cc/tabs/u/u2/with_or_without_you_acoustic_tab_ver_3.html ]
e|-----------2-----------2-----------------3-------------3-------|
B|------3-----------3-----------------0-------------0------------|
G|--------4-----------4------------------0-------------0---------|
D|---------------------------------------------------------------|
A|---2-----------2-----------------------------------------------|
E|----------------------------------3-------------3--------------|




D       A                     Bm
See the stone set in your eyes
        G                       D
See the thorn twist in your side
       A                Bm              G
Iíll wait for you

Sleight of hand and twist of fate
On a bed of nails she makes me wait
And I wait without you

With or without you
With or without you

Through the storm we reach the shore
You give it all but I want more
And I'm waiting for you

With or without you
With or without you
I can't live
With or without you

And you give yourself away
And you give yourself away
And you give
And you give
And you give yourself away

My hands are tied
My body bruised, she's got me with
Nothing to win and
Nothing left to lose

And you give yourself away
And you give yourself away
And you give
And you give
And you give yourself away

With or without you
With or without you
I can't live
With or without you

With or without you
With or without you
I can't live
With or without you
With or without you